Traditionnelle:jingle bells

Voir le sujet précédent Voir le sujet suivant Aller en bas

Traditionnelle:jingle bells

Message par Riffraff le Sam 17 Mar 2012 - 18:30

Spoiler:

Jingle Bells


Verse
| | | | | | | | | | | | | | |

E----|-----0--------|----------------|------0--------|------
B----|--------3--1--|----------------|---------3--1--|------
G--0-|--0--0--------|--0--------0-0--|---0--0--------|--2---
D--3-|--------3--2--|-----------3----|---------3--2--|--3---
A--2-|--3-----------|--3--------2----|---3-----------|------
E--3-|--------------|-----------3----|---------------|------


| | | | | | | | | | | | | | |

E--------|-----1--0-----|--------------|--3--3--1-----|--0--
B--------|-----------3--|--0-----------|--0--------3--|-----
G-----2--|--2--2--0-----|--------------|--------0-----|--0--
D--------|--0--------3--|--0-----------|--------------|-----
A--------|--------------|--------------|--------------|-----
E--------|--------------|--------------|--------------|-----

| | | | | | | | | | | | | | |

E-----------|-----0--------|---------------|-----0--------|-
B--1--------|--------3--1--|---------------|--------3--1--|-
G-----2--0--|--0--0--------|--0------------|--0--0--------|-
D-----------|--------3--2--|-----------2-3-|--------3--2--|-
A-----------|--3-----------|--3------------|--3-----------|-
E-----------|--------------|-----------3---|--------------|-

| | | | | | | | | | | | | | | |

E-------------|-----1--0-----|--3--3--3--3-3-|-5--3--1-----
B-------------|-----------3--|--0------------|-0--------3--
G--2--------2-|--2--2--0--3--|---------------|-------0-----
D--3----------|--0-----------|---------------|-------------
A-------------|--------------|---------------|-------------
E-------------|--------------|---------------|-------------






Refrain X2
| | | | | | | | | | | | | | | |

E|--------3---||--0--0--0-----|--0--0--0-----|--0--3--------
B|--1-----6---||--1--0--------|--1--0--------|--1--0--1---3-
G|--------0---||--------2--0--|--------2--0--|--------2--0--
D|--2---------||--------------|--------------|--------------
A|------------||--------------|--------------|--------------
E|------------||--------------|--------------|--------------






Ending 1
| | | | | | | | | | | | | | |

E|--0-----------|--1--1--1----1-|--1--0--0--0-0-||-0--------
B|--1--0--------|--3--------0---|--1-----1------||----3-----
G|--------2--0--|-----0--2------|--2-----0------||-0-----2--
D|--------------|---------------|--0-----2------||----3-----
A|--------------|---------------|--------0------||-------3--
E|--------------|---------------|---------------||----------

Ending 2
| | | | | | | | |

E--0--|--------3-1-0---||--3--3--1-----|-----7--8---||
B-----|--3-----0-----3-||--0-----3--3--|--1---------||
G--0--|-----0------0---||--0-----0-----|--0--0------||
D-----|--3-------------||--------------|--2-----10--||
A-----|----------------||--------------|--3---------||
E-----|----------------||--------------|------------||




Dernière édition par Riffraff le Ven 3 Aoû 2012 - 8:31, édité 1 fois
avatar
Riffraff
Admin
Admin

Messages : 824
Date d'inscription : 07/12/2011

http://forumdesguitaristes.forumsmusic.com

Revenir en haut Aller en bas

Re: Traditionnelle:jingle bells

Message par Invité le Lun 30 Avr 2012 - 22:34

si tu choisis la font de caractère "courier new"

avec un clic droit sur la case A bleu juste au dessus,

tu auras des tab bien alignées ...


exemple :


E----|-----0--------|----------------|------0--------|------
B----|--------3--1--|----------------|---------3--1--|------
G--0-|--0--0--------|--0--------0-0--|---0--0--------|--2---
D--3-|--------3--2--|-----------3----|---------3--2--|--3---
A--2-|--3-----------|--3--------2----|---3-----------|------
E--3-|--------------|-----------3----|---------------|------


| | | | | | | | | | | | | | |


E--------|-----1--0-----|--------------|--3--3--1-----|--0--

B--------|-----------3--|--0-----------|--0--------3--|-----
G-----2--|--2--2--0-----|--------------|--------0-----|--0--
D--------|--0--------3--|--0-----------|--------------|-----
A--------|--------------|--------------|--------------|-----
E--------|--------------|--------------|--------------|-----

| | | | | | | | | | | | | | |


E-----------|-----0--------|---------------|-----0--------|-

B--1--------|--------3--1--|---------------|--------3--1--|-
G-----2--0--|--0--0--------|--0------------|--0--0--------|-
D-----------|--------3--2--|-----------2-3-|--------3--2--|-
A-----------|--3-----------|--3------------|--3-----------|-
E-----------|--------------|-----------3---|--------------|-

| | | | | | | | | | | | | | | |


E-------------|-----1--0-----|--3--3--3--3-3-|-5--3--1-----

B-------------|-----------3--|--0------------|-0--------3--
G--2--------2-|--2--2--0--3--|---------------|-------0-----
D--3----------|--0-----------|---------------|-------------
A-------------|--------------|---------------|-------------
E-------------|--------------|---------------|-------------

à plus
avatar
Invité
Invité


Revenir en haut Aller en bas

Re: Traditionnelle:jingle bells

Message par Riffraff le Mar 1 Mai 2012 - 9:14

Merci^^ (depuis le temps où je n'arrivais pas !) Et pense a mettre la tab. en spoiler merci ca prend moins de place.
avatar
Riffraff
Admin
Admin

Messages : 824
Date d'inscription : 07/12/2011

http://forumdesguitaristes.forumsmusic.com

Revenir en haut Aller en bas

Re: Traditionnelle:jingle bells

Message par Invité le Mar 15 Mai 2012 - 14:12

Police modifiée ...
avatar
Invité
Invité


Revenir en haut Aller en bas

Re: Traditionnelle:jingle bells

Message par Contenu sponsorisé


Contenu sponsorisé


Revenir en haut Aller en bas

Voir le sujet précédent Voir le sujet suivant Revenir en haut

- Sujets similaires

 
Permission de ce forum:
Vous ne pouvez pas répondre aux sujets dans ce forum