Rock:Trust:antisocial+paroles

Voir le sujet précédent Voir le sujet suivant Aller en bas

Rock:Trust:antisocial+paroles

Message par Riffraff le Sam 17 Mar 2012 - 18:26

[spoiler]
INTRO (guitare accoustique) :

<font face="courier new">

C (add9) G C (add9)
T--|--0-------0-----------|--3------3--3-----------|--0------0--0-----------|
---|--3----------3-----3--|--3------------3-----3--|--3------------3-----3--|
A--|--0-------------0-----|--0---------------0-----|--0---------------0-----|
---|--2-------------------|--0---------------------|--2---------------------|
B--|--3-------------------|--2---------------------|--3---------------------|
---|----------------------|--3---------------------|------------------------|


G C (add9) G
T--|--3----3--3-----------|--0------0--0-----------|--3---------------------|
---|--3----------3-----3--|--3------------3-----3--|--3---------------------|
A--|--0-------------0-----|--0---------------0-----|--0---------------------|
---|--0-------------------|--2---------------------|--0---------------------|
B--|--2-------------------|--3---------------------|--2---------------------|
---|--3-------------------|------------------------|--3---------------------|


INTRO (electrique and accoustique) :

C (add9) C (add9) G G
T--|--0----0-----|--0----0-----|--3----3-----|--3----3-----|
---|--3-------3--|--3-------3--|--3-------3--|--3-------3--|
A--|--0----------|--0----------|--0----------|--0----------|
---|--2----------|--2----------|--0----------|--0----------|
B--|--3----------|--3----------|--2----------|--2----------|
---|-------------|-------------|--3----------|--3----------|


C (add9) C (add9) G G
T--|--0----0-----|--0----0-----|--3----3-----|--3----3-----|
---|--3-------3--|--3-------3--|--3-------3--|--3-------3--|
A--|--0----------|--0----------|--0----------|--0----------|
---|--2----------|--2----------|--0----------|--0----------|
B--|--3----------|--3----------|--2----------|--2----------|
---|-------------|-------------|--3----------|--3----------|


INTRO (rythmique saturee) :


D D+
T--|-----------------------------------|------------------------------------|
---|------3-----3---3-----3-------3-0--|------3-----3---3-----3-----3-0-----|
A--|------2-----2---2-----2-------2-0--|------3-----3---3-----3-----3--0-5--|
---|--0-0---0-0---0---0-0---0-0-0------|--0-0---0-0---0---0-0---0-0------3--|
B--|-----------------------------------|------------------------------------|
---|-----------------------------------|------------------------------------|


C A
T--|-----------------------------------|------------------------------------|
---|-----------------------------------|------------------3-3-3-2----2-0----|
A--|------5-----5---5-----5-------5-0--|------2-----2-----2-2-2-2----2-0----|
---|------5-----5---5-----5-------5-0--|------2-----2-----4-2-4-2----2-0----|
B--|--------3-3---3---3-3---3-3-3------|--0-0---0-0---0-0-------------------|
---|-----------------------------------|------------------------------------|


D D+
T--|-----------------------------------|------------------------------------|
---|------3-----3---3-----3-------3-0--|------3-----3---3-----3-------3-0---|
A--|------2-----2---2-----2-------2-0--|------3-----3---3-----3-------3-0---|
---|--0-0---0-0---0---0-0---0-0-0------|--0-0---0-0---0---0-0---0-0-0-------|
B--|-----------------------------------|------------------------------------|
---|-----------------------------------|------------------------------------|


C A
T--|-----------------------------------|------------------------------------|
---|-----------------------------------|------------------3-3-3-2----2-0----|
A--|------5-----5---5-----5-------5-0--|------2-----2-----2-2-2-2----2-0----|
---|------5-----5---5-----5-------5-0--|------2-----2-----4-2-4-2----2-0----|
B--|--3-3---3-3---3---3-3---3-3-3------|--0-0---0-0---0-0-------------------|
---|-----------------------------------|------------------------------------|

Couplet
D D+
T--|-----------------------------------|------------------------------------|
---|º-----3-----3---3-----3-------3-0--|------3-----3---3-----3-------3-0---|
A--|------2-----2---2-----2-------2-0--|------3-----3---3-----3-------3-0---|
---|°-0-0---0-0---0---0-0---0-0-0------|--0-0---0-0---0---0-0---0-0-0-------|
B--|-----------------------------------|------------------------------------|
---|-----------------------------------|------------------------------------|


C A
T--|-----------------------------------|------------------------------------|
---|-----------------------------------|------------------3-3-3-2----2-0---°|
A--|------5-----5---5-----5-------5-0--|------2-----2-----2-2-2-2----2-0----|
---|------5-----5---5-----5-------5-0--|------2-----2-----4-2-4-2----2-0---°|
B--|--3-3---3-3---3---3-3---3-3-3------|--0-0---0-0---0-0-------------------|
---|-----------------------------------|------------------------------------|


C A
T--|-----------------------------------|------------------------------------|
---|-----------------------------------|-----------3------------------------|
A--|------5-----5---5-----5-----5-0-2--|-----------2------------------2-----|
---|------5-----5---5-----5-----5-0-2--|-----------4------------------2-----|
B--|--3-3---3-3---3---3-3---3-3-----0--|---------0------------------0-0-----|
---|-----------------------------------|------------------------------------|
Refrain

A D C G
T--|----------------------------------||------------------------------------|
---|----------------------------------||°-----------------------------3-----|
A--|-----2--2-----2-------------------||-----------7-5--------------5-0-----|
---|-----2--2-----2-----------3-0-----||°----------7-5--------------5-0-----|
B--|-----0--0-0-3-----------------3-5-||-----------5-3--------------3-2-----|
---|--------------------1-3-5---------||------------------------------3-----|


F D C G
T--|-----3-----------------------------|------------------------------------|
---|-----3-----------------------------|-----------------------------3------|
A--|-----0--------------------------7--|------------5s7-7-5--5--5--5-0------|
---|-----0----------3---------3-0---7--|------------5s7-7-5--5--5--5-0------|
B--|----------------3-------------3-5--|------------------3--3--3--3-2------|
---|--------------1-1---1-3-5----------|-----------------------------3------|


F D C D
T--|-----3-----------------------------||-----------------------------------|
---|-----3----------------------------°||--3--------------------------------|
A--|-----0--------------------------7--||--0------------------------5-5-5-7-|
---|-----0----------3---------3-0---7-°||--0------------------------5-5-5-7-|
B--|----------------3-------------3-5--||--2------------------------3-3-3-5-|
---|--------------1-1---1-3-5----------||--3--3-0-3-0-3-0-3-0-3-0-3---------|

Break


Dernière édition par Riffraff le Ven 3 Aoû 2012 - 8:26, édité 1 fois
avatar
Riffraff
Admin
Admin

Messages : 824
Date d'inscription : 07/12/2011

http://forumdesguitaristes.forumsmusic.com

Revenir en haut Aller en bas

Re: Rock:Trust:antisocial+paroles

Message par Invité le Mar 15 Mai 2012 - 14:15

Police modifiée ...
avatar
Invité
Invité


Revenir en haut Aller en bas

Voir le sujet précédent Voir le sujet suivant Revenir en haut

- Sujets similaires

 
Permission de ce forum:
Vous ne pouvez pas répondre aux sujets dans ce forum