Rock:u2:sunday bloody sunday

Voir le sujet précédent Voir le sujet suivant Aller en bas

Rock:u2:sunday bloody sunday

Message par Riffraff le Sam 17 Mar 2012 - 18:24

Spoiler:



Intro:
Bm D G
-------2-------2-------0-------0-------
-----3---3---3---2---3---3---3---3-----
---4-------2-------0-------0------0----
---------------------------------------
---------------------------------------
---------------------------------------

Couplet:
Bm G Bm E
--2-----0-----2-------------------------
--3-----3-----3-----5-------------------
--4-----0-----4-----4-------------------
--------------------2-------------------
----------------------------------------
----------------------------------------

Refrain:
Bm D G
--7--7---10-10-10----------------------------
--7--7---10-10-10---12-12--12-12-12-12-12----
--7--7---11-11-11---12-12--12-12-12-12-12----
--9--9---12-12-12---12-12--12-12-12-12-12----
--9--9---12-12-12---10-10--10-10-10-10-10----
---------------------------------------------
Bm D G A G
--7--7---10-10-10----------------------------
--7--7---10-10-10---12-12--12-12-12/14\12----
--7--7---11-11-11---12-12--12-12-12/14\12----
--9--9---12-12-12---12-12--12-12-12/14\12----
--9--9---12-12-12---10-10--10-10-10/12\10----
---------------------------------------------
(harmonics)
--------------------------------------------------------
--------------------(7)-------------------------(7)-----
--------------(5)------(7)----------------(5)----------- o
-----(5)---(5)-------------------(5)---(5)-------------- o
--(5)-------------------------(5)-----------------------
--------------------------------------------------------

Solo:
-12-12-12-10-10---12-12-12-10-10------------------------------------
--0--0--0--0--0----0--0--0--0--0----12-12-12-10-10---12-12-12-10-10-
-------------------------------------0--0--0--0--0----0--0--0--0--0- o
-------------------------------------------------------------------- o
--------------------------------------------------------------------
--------------------------------------------------------------------

--------------------------------------------------------
-10-10-10--8--8--8--7--7--7--5--5--5--3--3--5--3--2--0--
--0--0--0--0--0--0--0--0--0-----------------------------
--------------------------------------------------------
--------------------------------------------------------
--------------------------------------------------------

------------------------------------------------10-10--9--------------
-0-2-3-2-3-5-3-5-7-5-7-8-7-8-10-8-10-12-10-12------------10-12-12-----
2---------------------------------------------------------------------
----------------------------------------------------------------------
----------------------------------------------------------------------
----------------------------------------------------------------------




Dernière édition par Riffraff le Ven 3 Aoû 2012 - 8:11, édité 2 fois
avatar
Riffraff
Admin
Admin

Messages : 824
Date d'inscription : 07/12/2011

http://forumdesguitaristes.forumsmusic.com

Revenir en haut Aller en bas

Re: Rock:u2:sunday bloody sunday

Message par Invité le Mar 15 Mai 2012 - 14:17

Police modifiée ...
avatar
Invité
Invité


Revenir en haut Aller en bas

Voir le sujet précédent Voir le sujet suivant Revenir en haut

- Sujets similaires

 
Permission de ce forum:
Vous ne pouvez pas répondre aux sujets dans ce forum