Variété française:francis cabrel:Je l'aime a mourir

Voir le sujet précédent Voir le sujet suivant Aller en bas

Variété française:francis cabrel:Je l'aime a mourir

Message par Riffraff le Ven 9 Mar 2012 - 16:40

[spoiler]

<font face="courier new">

je l'aime a mourir ecrit par francis cabrel

capo 5

|---0---------0----------0----------0------|
|-----1---------1----------1----------1----|
|-------0---------0----------0----------0--|
|-----------2--------------------0---------|x 2
|-3-------------------2--------------------|
|------------------------------------------|

|---0---------0---------0---------0------|
|-----1---------1---------1---------1----|
|-------0---------0---------0---------0--|
|-----------2-------------------2--------|
|-3-------------------3------------------|
|----------------------------------------|

|---0---------0---------0---------0------|
|-----1---------1---------1---------1----|
|-------0---------0---------0---------0--|
|-----------2-------------------2--------|
|-2-------------------2------------------|
|----------------------------------------|

|----0----------0----------|
|------1----------0--------|
|--------2----------2------|
|------------2-------------|x 2
|-0------------------------|
|--------------------------|

|----1----------1----------1----------1--------|
|------3----------3----------3----------3------|
|--------2----------2----------2----------2----|
|-0----------0----------3----------3-----------|
|----------------------------------------------|
|----------------------------------------------|

|----1---------1------------------3-------|
|------1---------1---------0--------0-----|
|--------2---------2-----4---0--------0---|
|-----------3-------------------0---------|
|-----------------------------------------|
|-3------------------5--------------------|

|---0---------0----------0----------0------|
|-----1---------1----------1----------1----|
|-------0---------0----------0----------0--|
|-----------2--------------------0---------|
|-3-------------------2--------------------|
|------------------------------------------|

|----0----------0----------|
|------1----------0--------|
|--------2----------2------|
|------------2-------------|x 2
|-0------------------------|
|--------------------------|

|---0---------0---------0---------0------|
|-----1---------1---------1---------1----|
|-------0---------0---------0---------0--|
|-----------2-------------------2--------|
|-2-------------------2------------------|
|----------------------------------------|

|----0----------0----------|
|------1----------0--------|
|--------2----------2------|
|------------2-------------|x 2
|-0------------------------|
|--------------------------|

|----1----------1----------1----------1--------|
|------3----------3----------3----------3------|
|--------2----------2----------2----------2----|
|-0----------0----------3----------3-----------|
|----------------------------------------------|
|----------------------------------------------|

|----1---------1---------3--------3-------|
|------1---------1---------0--------0-----|
|--------2---------2---------0--------0---|
|-----------3-------------------0---------|
|-----------------------------------------|
|-3------------------5--------------------|

|---0---------0----------0----------0------|
|-----1---------1----------1----------1----|
|-------0---------0----------0----------0--|
|-----------2--------------------0---------|
|-3-------------------2--------------------|
|------------------------------------------|

|----0----------0----------|
|------1----------0--------|
|--------2----------2------|
|------------2-------------|x 2
|-0------------------------|
|--------------------------|

|----0---------0----------0---------0------|
|------0---------0----------1---------1----|
|--------1---------1----------2---------0--|
|-----------2--------------------2---------|
|-2--------------------0-------------------|
|------------------------------------------|

|---3---------3---------0--------0-----|
|-----0---------0---------1--------1---|
|-------0---------0---------0--------0-|
|----------0-------------------2-------|
|---------------------3----------------|
|-3------------------------------------|

|----0---------0----------0---------0------|
|------0---------0----------1---------1----|
|--------1---------1----------2---------0--|
|-----------2--------------------2---------|
|-2--------------------0-------------------|
|------------------------------------------|

|---1---------1------|
|-----1---------1----|
|-------3---------3--|
|----------3---------|
|-1------------------|
|--------------------|



[ Tab from: [Vous devez être inscrit et connecté pour voir ce lien] ]
|---0---------0----------0----------0------|
|-----1---------1----------1----------1----|
|-------0---------0----------0----------0--|
|-----------2--------------------0---------|x 2
|-3-------------------2--------------------|
|------------------------------------------|

|---0---------0---------0---------0------|
|-----1---------1---------1---------1----|
|-------0---------0---------0---------0--|
|-----------2-------------------2--------|
|-3-------------------3------------------|
|----------------------------------------|

|---0---------0---------0---------0------|
|-----1---------1---------1---------1----|
|-------0---------0---------0---------0--|
|-----------2-------------------2--------|
|-2-------------------2------------------|
|----------------------------------------|

|----0----------0----------|
|------1----------0--------|
|--------2----------2------|
|------------2-------------|x 2
|-0------------------------|
|--------------------------|

|----1----------1----------1----------1--------|
|------3----------3----------3----------3------|
|--------2----------2----------2----------2----|
|-0----------0----------3----------3-----------|
|----------------------------------------------|
|----------------------------------------------|

|----1---------1------------------3-------|
|------1---------1---------0--------0-----|
|--------2---------2-----4---0--------0---|
|-----------3-------------------0---------|
|-----------------------------------------|
|-3------------------5--------------------|

|---0---------0----------0----------0------|
|-----1---------1----------1----------1----|
|-------0---------0----------0----------0--|
|-----------2--------------------0---------|
|-3-------------------2--------------------|
|------------------------------------------|

|----0----------0----------|
|------1----------0--------|
|--------2----------2------|
|------------2-------------|x 2
|-0------------------------|
|--------------------------|

|---0---------0---------0---------0------|
|-----1---------1---------1---------1----|
|-------0---------0---------0---------0--|
|-----------2-------------------2--------|
|-2-------------------2------------------|
|----------------------------------------|

|----0----------0----------|
|------1----------0--------|
|--------2----------2------|
|------------2-------------|x 2
|-0------------------------|
|--------------------------|

|----1----------1----------1----------1--------|
|------3----------3----------3----------3------|
|--------2----------2----------2----------2----|
|-0----------0----------3----------3-----------|
|----------


Dernière édition par Riffraff le Ven 3 Aoû 2012 - 8:05, édité 1 fois
avatar
Riffraff
Admin
Admin

Messages : 824
Date d'inscription : 07/12/2011

http://forumdesguitaristes.forumsmusic.com

Revenir en haut Aller en bas

Re: Variété française:francis cabrel:Je l'aime a mourir

Message par Invité le Mar 15 Mai 2012 - 14:22

Police modifiée ...
avatar
Invité
Invité


Revenir en haut Aller en bas

Voir le sujet précédent Voir le sujet suivant Revenir en haut

- Sujets similaires

 
Permission de ce forum:
Vous ne pouvez pas répondre aux sujets dans ce forum