Metallica Enter Sandman

Voir le sujet précédent Voir le sujet suivant Aller en bas

Metallica Enter Sandman

Message par Peavyletrik le Mer 9 Oct 2013 - 18:35

Salut
 
Voila je me permet de mettre un partition en tab,désolé si c'est un doublon mais je l'ai pas vu dans la liste
 
E|------------------------|
B|------------------------|
G|------------------------|
D|----------5-------------|
A|-------7-------------7--|
E|--0----------6--5-------|


juste après l'intro,x1
E|--------------------------|
B|--------------------------|
G|--------------------------|
D|--------------------------|
A|--2--------------------7--|
E|--0--0--0--0--0--0--0-----|

x4

E|--------------------------|
B|--------------------------|
G|--------------------------|
D|--------------------------|
A|-----------------------7--|
E|--0--0--0--0--0--0--0-----|

x4

E|--------------------------|
B|--------------------------|
G|--------------------------|
D|--------------------------|
A|---------7-------------3--|
E|--0--0-----6--0--0--0--1--|

x8

E|--------------------------|
B|--------------------------|
G|--------------------------|
D|--------------------------|
A|---------7-------------3--|
E|--0--0-----6--5--0--0--1--|

riff pricipal 1, 3 fois
E|-------------------------|
B|-------------------------|
G|-------------------------|
D|-------------------------|
A|--2----2--7--------------|
E|--0----0-----6--5~----0--|

x1
E|----------------------------|
B|----------------------------|
G|----------------------------|
D|----------------------------|
A|--5--------4----4--5--4--2--|
E|--3----0--2--0--2--3--2--0--|

 
 
Voili voilou sur quoi je suis en ce moment,c'est un morceau que je trouve assez sympa a jouer  rabbit 


Dernière édition par Peavyletrik le Jeu 10 Oct 2013 - 12:46, édité 1 fois
avatar
Peavyletrik
Je suis assez actif
Je suis assez actif

Messages : 37
Date d'inscription : 06/10/2013
Age : 42
Localisation : Reims

Revenir en haut Aller en bas

Re: Metallica Enter Sandman

Message par Invité le Mer 9 Oct 2013 - 21:09

super merci !!^^

j'ai changé la police pour éliminer les décalages ...
toi qui as la partoche,
tu peux revérifier l'ordre des notes et supprimer les derniers écarts ?
avatar
Invité
Invité


Revenir en haut Aller en bas

Re: Metallica Enter Sandman

Message par Riffraff le Jeu 10 Oct 2013 - 11:33

salut,
 
 Merci c'est sympas de partager!
Le partage.... C'est magique!

@++


Dernière édition par Riffraff le Jeu 10 Oct 2013 - 14:10, édité 1 fois

_Signature________♪♫
V pour Vendetta:
Voilà !Vois en moi l’image d’un humble Vétéran de VaudeVille.Distribué Vicieusement dans les rôles de Victime et de Vilain par les Vicissitudes de la Vie.Ce Visage,plus qu’un Vil Vernis de Vanité est un Vestige de la Vox populi aujourd’hui Vacante, éVanouie. Cependant cette Vaillante Visite d’une Vexation passée se retrouve ViVifiée et a fait Vœu de Vaincre cette Vénale et Virulente Vermine Vantant le Vice et Versant dans la Vicieusement Violente et Vorace Violation de la Volition !Un seul Verdict : la Vengeance.Une Vendetta telle une offrande VotiVe mais pas en Vain. Car sa Valeur et sa Véracité Viendront un jour faire Valoir le Vigilant et le Vertueux.  En Vérité ce Velouté de Verbiage Vire Vraiment au Verbeux alors laisse moi simplement ajouter que c’est un Véritable honneur que de te rencontrer.Appelle moi V.
avatar
Riffraff
Admin
Admin

Messages : 824
Date d'inscription : 07/12/2011

http://forumdesguitaristes.forumsmusic.com

Revenir en haut Aller en bas

Re: Metallica Enter Sandman

Message par Peavyletrik le Jeu 10 Oct 2013 - 12:45

Salut 

Oups désolé j'avait pas fait attention au décalage  1/10   

Je corrige de suite
avatar
Peavyletrik
Je suis assez actif
Je suis assez actif

Messages : 37
Date d'inscription : 06/10/2013
Age : 42
Localisation : Reims

Revenir en haut Aller en bas

Re: Metallica Enter Sandman

Message par Contenu sponsorisé


Contenu sponsorisé


Revenir en haut Aller en bas

Voir le sujet précédent Voir le sujet suivant Revenir en haut

- Sujets similaires

 
Permission de ce forum:
Vous ne pouvez pas répondre aux sujets dans ce forum