I wanna be your dog: the stooges(iggy pop)

Voir le sujet précédent Voir le sujet suivant Aller en bas

I wanna be your dog: the stooges(iggy pop)

Message par Riffraff le Jeu 3 Oct 2013 - 13:53

salut , un grand classique:

riff principal:

E|-----------------------------------------|
B|-----------------------------------------|
G|-12-12-12--11-11-11-11--9-9-9-9-9-9-9-|
D|-12-12-12--11-11-11-11--9-9-9-9-9-9-9-|
A|-10-10-10--9--9--9--9---7-7-7-7-7-7-7-|
E|-----------------------------------------|


refrain:
e|------------------------------------------------------------------------------|
B|------------------------------------------------------------------------------|
G|------------------------------------------------------------------------------|
D|--12-12-12---9-9-9-9-9-7-7-7-4-4-4-4---------------------------------------|
A|--10-10-10---7-7-7-7-7-5-5-5-2-2-2-2---------------------------------------|
E|--10-10-10---7-7-7-7-7-5-5-5-2-2-2-2---------------------------------------|


voila @++!


_Signature________♪♫
V pour Vendetta:
Voilà !Vois en moi l’image d’un humble Vétéran de VaudeVille.Distribué Vicieusement dans les rôles de Victime et de Vilain par les Vicissitudes de la Vie.Ce Visage,plus qu’un Vil Vernis de Vanité est un Vestige de la Vox populi aujourd’hui Vacante, éVanouie. Cependant cette Vaillante Visite d’une Vexation passée se retrouve ViVifiée et a fait Vœu de Vaincre cette Vénale et Virulente Vermine Vantant le Vice et Versant dans la Vicieusement Violente et Vorace Violation de la Volition !Un seul Verdict : la Vengeance.Une Vendetta telle une offrande VotiVe mais pas en Vain. Car sa Valeur et sa Véracité Viendront un jour faire Valoir le Vigilant et le Vertueux.  En Vérité ce Velouté de Verbiage Vire Vraiment au Verbeux alors laisse moi simplement ajouter que c’est un Véritable honneur que de te rencontrer.Appelle moi V.
avatar
Riffraff
Admin
Admin

Messages : 824
Date d'inscription : 07/12/2011

http://forumdesguitaristes.forumsmusic.com

Revenir en haut Aller en bas

Re: I wanna be your dog: the stooges(iggy pop)

Message par Peavyletrik le Jeu 10 Oct 2013 - 13:43

Merci Riffraff,toujours sympa un ptit iggy pop Smile
avatar
Peavyletrik
Je suis assez actif
Je suis assez actif

Messages : 37
Date d'inscription : 06/10/2013
Age : 42
Localisation : Reims

Revenir en haut Aller en bas

Voir le sujet précédent Voir le sujet suivant Revenir en haut

- Sujets similaires

 
Permission de ce forum:
Vous ne pouvez pas répondre aux sujets dans ce forum