Walk this way: Aérosmith (intro+riff)

Voir le sujet précédent Voir le sujet suivant Aller en bas

Walk this way: Aérosmith (intro+riff)

Message par Riffraff le Ven 5 Juil 2013 - 15:04

Hello! un pti classique du rock


E----------------------|----------------------------|
B----------------------|----------------------------|
D----------------------|----------------------------|
G-------2-------2------|-------2-------2------2-----|
A-0-1-2---0-1-2--------|-0-1-2---0-1-2--------------|
E-----------------0--x-|------------------3p0-------|


E----------------------|----------------------------|
B----------------------|----------------------------|
D----------------------|------------------2---------|
G-------2-------2------|-------2-------2--2---------|
A-0-1-2---0-1-2--------|-0-1-2---0-1-2----0---------|
E-----------------0----|----------------------------|




  pm------------------------------------------------->
E------------------------------------------------------------|
B------------------------------------------------------------|
D------------------------------------------------------------|
G--------------------------10--------------------------------|
A--------10----10-12-10-------10--10--13--10--12--10---------|
E-8-8-8-----------------8------------------------------------|


ps=> ne pas faire des hammers pour le riff principal!
@+


Dernière édition par Riffraff le Ven 12 Juil 2013 - 17:10, édité 2 fois

_Signature________♪♫
V pour Vendetta:
Voilà !Vois en moi l’image d’un humble Vétéran de VaudeVille.Distribué Vicieusement dans les rôles de Victime et de Vilain par les Vicissitudes de la Vie.Ce Visage,plus qu’un Vil Vernis de Vanité est un Vestige de la Vox populi aujourd’hui Vacante, éVanouie. Cependant cette Vaillante Visite d’une Vexation passée se retrouve ViVifiée et a fait Vœu de Vaincre cette Vénale et Virulente Vermine Vantant le Vice et Versant dans la Vicieusement Violente et Vorace Violation de la Volition !Un seul Verdict : la Vengeance.Une Vendetta telle une offrande VotiVe mais pas en Vain. Car sa Valeur et sa Véracité Viendront un jour faire Valoir le Vigilant et le Vertueux.  En Vérité ce Velouté de Verbiage Vire Vraiment au Verbeux alors laisse moi simplement ajouter que c’est un Véritable honneur que de te rencontrer.Appelle moi V.
avatar
Riffraff
Admin
Admin

Messages : 824
Date d'inscription : 07/12/2011

http://forumdesguitaristes.forumsmusic.com

Revenir en haut Aller en bas

Re: Walk this way: Aérosmith (intro+riff)

Message par tulgitam le Lun 8 Juil 2013 - 7:28

Slaut Riffraff,

C'est sympa de nous préparer des devoirs de vacances.Smile
avatar
tulgitam
Je suis actif
Je suis actif

Messages : 150
Date d'inscription : 24/01/2013
Age : 64
Localisation : Villemoisan Maine et Loire

http://tulgitam.jimdo.com/

Revenir en haut Aller en bas

Voir le sujet précédent Voir le sujet suivant Revenir en haut

- Sujets similaires

 
Permission de ce forum:
Vous ne pouvez pas répondre aux sujets dans ce forum