intro de Someone like you d’Adele avec vidéo

Voir le sujet précédent Voir le sujet suivant Aller en bas

intro de Someone like you d’Adele avec vidéo

Message par Invité le Mer 24 Avr 2013 - 17:46

Someone like you d’Adele


Un arpège bien sympa pour cette intro,

qui fait aussi l’affaire pour les couplets …


une seule difficulté, le barré en case 2 …
et encore, c’est juste un barré sans doigté supplémentaire …

l’arpège enchaîne index majeur annulaire majeur en boucle,
pas de difficulté la non plus,
juste un peu de travail pour l’apprivoiser …


la tablature



---------0-------------0--------------0--------------0--------
-----2------2------2------2------2------2-------2------2----
--2-------------2-------------2--------------2----------------
----------------------------------------------------------------
--0------------------------------------------------------------
----------------------------------------------------------------


---------0-------------0--------------0--------------0--------
-----2------2------2------2------2------2-------2------2----
--1-------------1-------------1--------------1----------------
----------------------------------------------------------------
--------------------------------------------------------------
--0--------------------------------------------------------------


---------2-------------2--------------2--------------2--------
-----2------2------2------2------2------2-------2------2----
--2-------------2-------------2--------------2----------------
----------------------------------------------------------------
---------------------------------------------------------------
--2------------------------------------------------------------


---------2-------------2--------------2--------------2--------
-----3------3------3------3------3------3-------3------3----
--2-------------2-------------2--------------2----------------
--0--------------------------------------------------------------
---------------------------------------------------------------
----------------------------------------------------------------



l’ original




la vidéo au ralenti


someone like you par pefmo


et bon courage … surtout pour le chant !^^
avatar
Invité
Invité


Revenir en haut Aller en bas

Re: intro de Someone like you d’Adele avec vidéo

Message par Silh le Jeu 25 Avr 2013 - 3:14

Tiens c'est pas si facile!
Comme quoi quand on a que quelque schéma d'arpèges sous la main...
avatar
Silh
Je suis actif
Je suis actif

Messages : 115
Date d'inscription : 15/10/2012
Age : 29
Localisation : Pacifique

Revenir en haut Aller en bas

Re: intro de Someone like you d’Adele avec vidéo

Message par tulgitam le Sam 4 Mai 2013 - 13:49

C'est super beau, je vais prendre le temps de l'apprendre et pourquoi pas au piano également ce sera l’occasion de m'y mettre.
avatar
tulgitam
Je suis actif
Je suis actif

Messages : 150
Date d'inscription : 24/01/2013
Age : 64
Localisation : Villemoisan Maine et Loire

http://tulgitam.jimdo.com/

Revenir en haut Aller en bas

Re: intro de Someone like you d’Adele avec vidéo

Message par Riffraff le Dim 5 Mai 2013 - 17:19

salut!

Merci de cette tab!


Riffraff

_Signature________♪♫
V pour Vendetta:
Voilà !Vois en moi l’image d’un humble Vétéran de VaudeVille.Distribué Vicieusement dans les rôles de Victime et de Vilain par les Vicissitudes de la Vie.Ce Visage,plus qu’un Vil Vernis de Vanité est un Vestige de la Vox populi aujourd’hui Vacante, éVanouie. Cependant cette Vaillante Visite d’une Vexation passée se retrouve ViVifiée et a fait Vœu de Vaincre cette Vénale et Virulente Vermine Vantant le Vice et Versant dans la Vicieusement Violente et Vorace Violation de la Volition !Un seul Verdict : la Vengeance.Une Vendetta telle une offrande VotiVe mais pas en Vain. Car sa Valeur et sa Véracité Viendront un jour faire Valoir le Vigilant et le Vertueux.  En Vérité ce Velouté de Verbiage Vire Vraiment au Verbeux alors laisse moi simplement ajouter que c’est un Véritable honneur que de te rencontrer.Appelle moi V.
avatar
Riffraff
Admin
Admin

Messages : 824
Date d'inscription : 07/12/2011

http://forumdesguitaristes.forumsmusic.com

Revenir en haut Aller en bas

Re: intro de Someone like you d’Adele avec vidéo

Message par Contenu sponsorisé


Contenu sponsorisé


Revenir en haut Aller en bas

Voir le sujet précédent Voir le sujet suivant Revenir en haut

- Sujets similaires

 
Permission de ce forum:
Vous ne pouvez pas répondre aux sujets dans ce forum