Intro: hysteria de Muse (partie à la basse sur électrique)

Voir le sujet précédent Voir le sujet suivant Aller en bas

Intro: hysteria de Muse (partie à la basse sur électrique)

Message par Rockman le Mar 30 Oct 2012 - 17:43

E|---------------------------------------------------------------------------------------------------------
B|---------------------------------------------------------------------------------------------------------
G|---------------------------------------------------------------------------------------------------------
D|---------------------------------------------------------------------------------------------------------
A|-0--0--10--0--10--12--0--10--0--7--0--8--8--7--5--7---------------------------------------------------
E|--------------------------------------------------------0--0--10--0--10--12--0--15--0--12--0--15--15--

E|---------------------------------------------------------------------------------------------------------
B|---------------------------------------------------------------------------------------------------------
G|---------------------------------------------------------------------------------------------------------
D|----------0--0--10--0--10--12--0--10--0--10--9--0--9--8--0--8--7--------------------------------------
A|------12--------------------------------------------------------------0--10--0--10--12--0--10--0--7-0-
E|12-15----------------------------------------------------------------------------------------------------

E|----------------------------------------------------------------------------------------------------------
B|----------------------------------------------------------------------------------------------------------
G|----------------------------------------------------------------------------------------------------------
D|----------------------------------------------------------------------------------------------------------
A|-8--8--7--5--7-------------------------------------------------------------------------------------------
E|----------------------------------------------------------------------------------------------------------

et voilà amusez-vous bien!!
avatar
Rockman
Je suis assez actif
Je suis assez actif

Messages : 11
Date d'inscription : 27/10/2012
Age : 20

Revenir en haut Aller en bas

Voir le sujet précédent Voir le sujet suivant Revenir en haut

- Sujets similaires

 
Permission de ce forum:
Vous ne pouvez pas répondre aux sujets dans ce forum