Riff back in black

Voir le sujet précédent Voir le sujet suivant Aller en bas

Riff back in black

Message par Rockman le Mar 30 Oct 2012 - 16:49

E|----------------------------
B|----------------------------
G|----------------------------
D|---0------------------------- X2
A|------4--2--4---2---2---2--2-
E|-0------------4---5---6------


E|------------------------------
B|------------------------------
G|----0-------------------------
D|------4--2--4---2---2----2--2- X2
A|-0------------4---5---6-------
E|------------------------------


E|----------------------------
B|----------------------------
G|----------------------------
D|----0------------------------- X2
A|------4--2--4---2---2---2--2-
E|-0------------4---5---6------


et voilà!amusez vous bien. Very Happy
n'hésitez pas à vous entrainer avec la musique.
avatar
Rockman
Je suis assez actif
Je suis assez actif

Messages : 11
Date d'inscription : 27/10/2012
Age : 20

Revenir en haut Aller en bas

Re: Riff back in black

Message par Invité le Mar 30 Oct 2012 - 17:33

ça semble être une version très personnelle !!^^

et c'est ... l'intro ?? ou une autre partie ?


tuxguitar me donne ceci pour l'intro, c'est très près de la vidéo ...


E|---------------------------|---------3--0---------------|---------------------------|
B|--------3--3--3------------|---------------3--0---------|--------3--3--3------------|
G|--------2--2--2------2--2--|-2-------------------2---0--|--------2--2--2------2--2--|
D|-2------0--0--0------2--2--|-2--------------------------|-2------0--0--0------2--2--|
A|-2-------------------0--0--|-0--------------------------|-2-------------------0--0--|
E|-0-------------------------|----------------------------|-0-------------------------|


E|------------------------------------|
B|------------------------------------|
G|-2----------------------------------|
D|-2----------------------------------|
A|-0----2------2------2--------2------|
E|---------4------5------6--------7---|



et la vidéo d'origine :



si j'ai le temps je ferai une vidéo de ce riff ...

à plus
avatar
Invité
Invité


Revenir en haut Aller en bas

Re: Riff back in black

Message par Rockman le Mar 30 Oct 2012 - 17:45

c'est pas l'intro. En fait c'est le pont après le solo et le refrain
avatar
Rockman
Je suis assez actif
Je suis assez actif

Messages : 11
Date d'inscription : 27/10/2012
Age : 20

Revenir en haut Aller en bas

Re: Riff back in black

Message par Riffraff le Dim 4 Nov 2012 - 14:50

Merci pour ce morceau Wink

_Signature________♪♫
V pour Vendetta:
Voilà !Vois en moi l’image d’un humble Vétéran de VaudeVille.Distribué Vicieusement dans les rôles de Victime et de Vilain par les Vicissitudes de la Vie.Ce Visage,plus qu’un Vil Vernis de Vanité est un Vestige de la Vox populi aujourd’hui Vacante, éVanouie. Cependant cette Vaillante Visite d’une Vexation passée se retrouve ViVifiée et a fait Vœu de Vaincre cette Vénale et Virulente Vermine Vantant le Vice et Versant dans la Vicieusement Violente et Vorace Violation de la Volition !Un seul Verdict : la Vengeance.Une Vendetta telle une offrande VotiVe mais pas en Vain. Car sa Valeur et sa Véracité Viendront un jour faire Valoir le Vigilant et le Vertueux.  En Vérité ce Velouté de Verbiage Vire Vraiment au Verbeux alors laisse moi simplement ajouter que c’est un Véritable honneur que de te rencontrer.Appelle moi V.
avatar
Riffraff
Admin
Admin

Messages : 824
Date d'inscription : 07/12/2011

http://forumdesguitaristes.forumsmusic.com

Revenir en haut Aller en bas

Re: Riff back in black

Message par Contenu sponsorisé


Contenu sponsorisé


Revenir en haut Aller en bas

Voir le sujet précédent Voir le sujet suivant Revenir en haut

- Sujets similaires

 
Permission de ce forum:
Vous ne pouvez pas répondre aux sujets dans ce forum