Et dans 150 ans-Raphael

Voir le sujet précédent Voir le sujet suivant Aller en bas

Et dans 150 ans-Raphael

Message par Riffraff le Mar 23 Oct 2012 - 16:05

Introduction:
C
E||--------3-----------|
B||--1--------1--------|
G||--------0-----0-----| A faire 4 fois puis...
D||-----2-----------2--|
A||--3-----------------|
E||--------------------|


C F Dm
E||3--------3-------|1----------1-------|1--------1---------|
B||---1--------1----|---1----------1----|---3----------3----|
G||------0--------0-|--------2--------2-|------2----------2-|
D||-----------------|-------------------|0------------------|
A||3----------------|1------------------|-------------------|
E||-----------------|-------------------|-------------------|
G Am
E||------------------|------------------|
B||0-----3--0--------|-3--------1-------|
G||---0--------0-----|----2--------2----|
D||---------------0--|-------2--------2-|
A||------------------|-0----------------|
E||3-----------------|------------------|

C....
dans 150 ans
F...
on s'en souviendra pas
Dm...
de ta première ride
G...
de nos mauvais choix
C...
de la vie qui nous baise
F...
de tous ces marchands d'armes
Dm...
des types qui votent les lois
G...
là-bas au gouvernement
Am
de ce monde qui pousse
F
de ce monde crie
Dm
du temps qui avance


etc.

Pour les paroles:http://www.parolesmania.com/paroles_raphael_4374/paroles_et_dans_150_ans_173329.html

_Signature________♪♫
V pour Vendetta:
Voilà !Vois en moi l’image d’un humble Vétéran de VaudeVille.Distribué Vicieusement dans les rôles de Victime et de Vilain par les Vicissitudes de la Vie.Ce Visage,plus qu’un Vil Vernis de Vanité est un Vestige de la Vox populi aujourd’hui Vacante, éVanouie. Cependant cette Vaillante Visite d’une Vexation passée se retrouve ViVifiée et a fait Vœu de Vaincre cette Vénale et Virulente Vermine Vantant le Vice et Versant dans la Vicieusement Violente et Vorace Violation de la Volition !Un seul Verdict : la Vengeance.Une Vendetta telle une offrande VotiVe mais pas en Vain. Car sa Valeur et sa Véracité Viendront un jour faire Valoir le Vigilant et le Vertueux.  En Vérité ce Velouté de Verbiage Vire Vraiment au Verbeux alors laisse moi simplement ajouter que c’est un Véritable honneur que de te rencontrer.Appelle moi V.
avatar
Riffraff
Admin
Admin

Messages : 824
Date d'inscription : 07/12/2011

http://forumdesguitaristes.forumsmusic.com

Revenir en haut Aller en bas

Voir le sujet précédent Voir le sujet suivant Revenir en haut

- Sujets similaires

 
Permission de ce forum:
Vous ne pouvez pas répondre aux sujets dans ce forum