San francisco-Maxime le Forestier

Voir le sujet précédent Voir le sujet suivant Aller en bas

San francisco-Maxime le Forestier

Message par Riffraff le Mar 23 Oct 2012 - 15:50

Introduction:

Mim Do Mim7


E-|--0------------|--0----0----0----|--0-------------|
B-|--0------------|--1----1----1----|--3-------------|
G-|--0------------|--0----0----0----|--0-------------|
D-|--2------------|--2----2----2----|--2-------------|
A-|--2------------|--3----3----3----|--2-------------|
E-|--0------------|------------------|--0-------------|

Do Mim

E-|--0---0----0----||--0-------------|
B-|--1----1---1----||--0-------------|
G-|--0----0----0----||--0-------------|
D-|--2----2----2----||--2-------------|
A-|--3----3----3----||--2-------------|
E-|-----------------||--0-------------|




Mim Sol
C'est une maison bleue
Sim Do
Adossee a la colline

On y vient a pied
Sol
On ne frappe pas
Re Do
Ceux qui vivent la on jete la cle

Mim Sol
On se retrouve ensemble
Sim Do
Apres des annees de route

Et on vient s'asseoir
Sol
Autour du repas
Re
Tout le monde est la
La
A cinq heures du soir


Refrain

Mim Sol La
Quand San Francisco s'embrume
La Do Re
Quand San Francisco s'al-lu-me
Sim
San Francisco
Mim
Ou etes-vous
Sol La
Lizzard et Luc
Do
Psylvia
Mi4 Sim7
Attendez-moi

Etc.

@+
si vous avez des questions n'hésite pas Wink

_Signature________♪♫
V pour Vendetta:
Voilà !Vois en moi l’image d’un humble Vétéran de VaudeVille.Distribué Vicieusement dans les rôles de Victime et de Vilain par les Vicissitudes de la Vie.Ce Visage,plus qu’un Vil Vernis de Vanité est un Vestige de la Vox populi aujourd’hui Vacante, éVanouie. Cependant cette Vaillante Visite d’une Vexation passée se retrouve ViVifiée et a fait Vœu de Vaincre cette Vénale et Virulente Vermine Vantant le Vice et Versant dans la Vicieusement Violente et Vorace Violation de la Volition !Un seul Verdict : la Vengeance.Une Vendetta telle une offrande VotiVe mais pas en Vain. Car sa Valeur et sa Véracité Viendront un jour faire Valoir le Vigilant et le Vertueux.  En Vérité ce Velouté de Verbiage Vire Vraiment au Verbeux alors laisse moi simplement ajouter que c’est un Véritable honneur que de te rencontrer.Appelle moi V.
avatar
Riffraff
Admin
Admin

Messages : 824
Date d'inscription : 07/12/2011

http://forumdesguitaristes.forumsmusic.com

Revenir en haut Aller en bas

Voir le sujet précédent Voir le sujet suivant Revenir en haut

- Sujets similaires

 
Permission de ce forum:
Vous ne pouvez pas répondre aux sujets dans ce forum