Petit Franck de François Feldman avec vidéo

Voir le sujet précédent Voir le sujet suivant Aller en bas

Petit Franck de François Feldman avec vidéo

Message par Invité le Mar 23 Oct 2012 - 10:13

chanson Petit Franck de François Feldman


Voici la chanson et les accords : petit-franckguitare36314.pdf


Voici l’original :




l’intro n’apporte pas grand-chose joué en arpège,
il faut mieux la faire très court,
genre un ré, un la et un ré et on démarre le couplet !

voila un arpège simple à mettre en place pour l’intro et le couplet :


-----------2-----------2----
--------3-----------3-------
-----2-----------2----------
--------------0-------------
--0-------------------------
----------------------------

la

-----------2-----------2----
--------2-----------2-------
-----2-----------2----------
--------------0-------------
--0-------------------------
----------------------------




toujours 8 notes, mais en fait 2 paquets de 4 plus facile à jouer et mémoriser ...

pour les basses, on alterne !



pour le refrain, changement d’ambiance avec une pattern plus péchue :


--2---------------------
----------------3-------
---------2--------------
------0-----0-----0-----
--0---------------------
------------------------


la
--0---------------------
----------------2-------
---------2--------------
------2-----2-----2----
--0---------------------
------------------------

sol
--3--------------------
----------------0-------
---------0--------------
------0-----0----0-----
--2---------------------
------------------------


voila une vidéo pour mieux comprendre le truc :




les accords de la partition ne m'ont pas inspiré pour chanter ...

le capodastre en case 5 pour faire vite ... donc décalé de 2 tons et demi ...


on transpose et les accords deviennent sol sol sol sol ré ré ré pour le couplet

et sol ré do sol do sol ré sol pour le refrain ...


on peut donc se passer du capo et jouer ces accords en bout de manche,

ça sonnera mieux en acoustique !


bon courage !
avatar
Invité
Invité


Revenir en haut Aller en bas

Voir le sujet précédent Voir le sujet suivant Revenir en haut

- Sujets similaires

 
Permission de ce forum:
Vous ne pouvez pas répondre aux sujets dans ce forum