Intro:rhcp: Under the bridge

Voir le sujet précédent Voir le sujet suivant Aller en bas

Intro:rhcp: Under the bridge

Message par Riffraff le Dim 30 Sep 2012 - 14:48

Voila l'introduction a faire avec un capodastre case 2.

e]-------------------------------------------------------------------|
B]3-----------3--------------2--------------------------------------2|
G]------2--------2-----------------------3---------------------------|
D]---4-----4--------4-2------------4--------4--4-2------------4------|
A]5---------------------5-4-----4-----4-------------5-2--4/5-----5---|
E]---------------------------2---------------------------------------|





e]-------------------------------------------------------------------|
B]-----3h5p3-------------2-------------------------------------------|
G]------------2----------------------3-------------------------2-----|
D]---------------4/6--6--------4--------4--4-2-----------4--------4--|
A]--5------------5/7--7-----4-----4------------5-2--4/5-----5--------|
E]-----------------------2-------------------------------------------|





e]-------------------------------------------------------------------|
B]3---------------------------------------------------------3h5p3----|
G]---2---------------------3--------------------------2------------2-|
D]-------------------4--------4--4-2------------4--------4-----------|
A]------4-2-------4-----4-------------5-2--4/5-----5-----------------|
E]-----------5-4-----------------------------------------------------|





e]-----------------------------------------|
B]-----------------------------------------|
G]---------------------3--------3----------|
D]-4/6--6--------4--------4--------4-------|
A]-5/7--7-----4-----4--------4--------4----|
E]---------2-------------------------------|


voici voila! tenez un pti lien Wink @+ :

http://www.songsterr.com/a/wsa/red-hot-chili-peppers-under-the-bridge-guitar-tab-s99t0

_Signature________♪♫
V pour Vendetta:
Voilà !Vois en moi l’image d’un humble Vétéran de VaudeVille.Distribué Vicieusement dans les rôles de Victime et de Vilain par les Vicissitudes de la Vie.Ce Visage,plus qu’un Vil Vernis de Vanité est un Vestige de la Vox populi aujourd’hui Vacante, éVanouie. Cependant cette Vaillante Visite d’une Vexation passée se retrouve ViVifiée et a fait Vœu de Vaincre cette Vénale et Virulente Vermine Vantant le Vice et Versant dans la Vicieusement Violente et Vorace Violation de la Volition !Un seul Verdict : la Vengeance.Une Vendetta telle une offrande VotiVe mais pas en Vain. Car sa Valeur et sa Véracité Viendront un jour faire Valoir le Vigilant et le Vertueux.  En Vérité ce Velouté de Verbiage Vire Vraiment au Verbeux alors laisse moi simplement ajouter que c’est un Véritable honneur que de te rencontrer.Appelle moi V.
avatar
Riffraff
Admin
Admin

Messages : 824
Date d'inscription : 07/12/2011

http://forumdesguitaristes.forumsmusic.com

Revenir en haut Aller en bas

Voir le sujet précédent Voir le sujet suivant Revenir en haut

- Sujets similaires

 
Permission de ce forum:
Vous ne pouvez pas répondre aux sujets dans ce forum