Come together des Beatles avec vidéo

Voir le sujet précédent Voir le sujet suivant Aller en bas

Come together des Beatles avec vidéo

Message par Invité le Mar 10 Juil 2012 - 13:34

Come together des Beatles


Voici un titre à jouer à 2 !! ou seul avec tuxguitar !


Aucune difficultés dans les 2 tablatures …

La difficulté sera de jouer au bon moment ensemble !!^^

Ecouter bien la vidéo officielle avant de vous lancer …



La tablature :

Spoiler:



Track 1: rhythm Guitar

accordage ré la ré sol la mi

E|--------------------------|--------------------------|--------------------------|
B|--------------------------|--------------------------|--------------------------|
G|--------------------------|--------------------------|--------------------------|
D|---------------3----------|---------------3----------|---------------3----------|
A|---------------3----------|---------------3----------|---------------3----------|
D|-0---0---3--5--------12---|-0---0---3--5--------12---|-0---0---3--5--------12---|


E|--------------------------|---------------------------------|---------------------------------|
B|--------------------------|---------------------------------|---------------------------------|
G|--------------------------|---------------------------------|---------------------------------|
D|---------------3----------|---------------------------------|---------------------------------|
A|---------------3----------|-0---0---2---2---0---0---2---2---|-0---0---2---2---0---0---2---2---|
D|-0---0---3--5--------12---|-0---0---0---0---0---0---0---0---|-0---0---0---0---0---0---0---0---|


E|---------------------------------|---------------------------------|---------------------------------|
B|---------------------------------|---------------------------------|---------------------------------|
G|---------------------------------|---------------------------------|---------------------------------|
D|---------------------------------|---------------------------------|---------------------------------|
A|-0---0---2---2---0---0---2---2---|-0---0---2---2---0---0---2---2---|-7---7---9---9---7---7---9---9---|
D|-0---0---0---0---0---0---0---0---|-0---0---0---0---0---0---0---0---|-7---7---7---7---7---7---7---7---|


E|---------------------------------|---------------------------|---------------------------|
B|---------------------------------|---------------------------|---------------------------|
G|---------------------------------|---------------------------|---------------------------|
D|---------------------------------|---------------------------|---------------------------|
A|-7---7---9---9---7---7---9---9---|-5----x--x----x----x--x----|-x----x--x----x----x--x----|
D|-7---7---7---7---7---7---7---7---|-5----x--x----x----x--x----|-x----x--x----x----x--x----|


E|--------------------------|--------------------------|--------------------------|
B|--------------------------|--------------------------|--------------------------|
G|--------------------------|--------------------------|--------------------------|
D|---------------3----------|---------------3----------|---------------3----------|
A|---------------3----------|---------------3----------|---------------3----------|
D|-0---0---3--5--------12---|-0---0---3--5--------12---|-0---0---3--5--------12---|


E|--------------------------|---------------------------------|---------------------------------|
B|--------------------------|---------------------------------|---------------------------------|
G|--------------------------|---------------------------------|---------------------------------|
D|---------------3----------|---------------------------------|---------------------------------|
A|---------------3----------|-0---0---2---2---0---0---2---2---|-0---0---2---2---0---0---2---2---|
D|-0---0---3--5--------12---|-0---0---0---0---0---0---0---0---|-0---0---0---0---0---0---0---0---|


E|---------------------------------|---------------------------------|---------------------------------|
B|---------------------------------|---------------------------------|---------------------------------|
G|---------------------------------|---------------------------------|---------------------------------|
D|---------------------------------|---------------------------------|---------------------------------|
A|-0---0---2---2---0---0---2---2---|-0---0---2---2---0---0---2---2---|-7---7---9---9---7---7---9---9---|
D|-0---0---0---0---0---0---0---0---|-0---0---0---0---0---0---0---0---|-7---7---7---7---7---7---7---7---|


E|---------------------------------|---------------------------|---------------------------|
B|---------------------------------|---------------------------|---------------------------|
G|---------------------------------|---------------------------|---------------------------|
D|---------------------------------|---------------------------|---------------------------|
A|-7---7---9---9---7---7---9---9---|-5----0--0----0----0--0----|-0----0--0----0----0--0----|
D|-7---7---7---7---7---7---7---7---|-5----0--0----0----0--0----|-0----0--0----0----0--0----|


E|---------------------------------|---------------------------|--------------------------|
B|---------------------------------|---------------------------|--------------------------|
G|---------------------------------|---------------------------|--------------------------|
D|---------------------------------|---------------------------|---------------3----------|
A|-9---9---9---9---9---9---7---7---|-5---5---5---5---7---------|---------------3----------|
D|-9---9---9---9---9---9---7---7---|-5---5---5---5---7---------|-0---0---3--5--------12---|


E|--------------------------|--------------------------|--------------------------|
B|--------------------------|--------------------------|--------------------------|
G|--------------------------|--------------------------|--------------------------|
D|---------------3----------|---------------3----------|---------------3----------|
A|---------------3----------|---------------3----------|---------------3----------|
D|-0---0---3--5--------12---|-0---0---3--5--------12---|-0---0---3--5--------12---|


E|-----1--1--1--1--1--1--1---------------|-----1--1--1--1--1--1--1---------------|
B|-----1--1--1--1--1--1--1---3---1---3---|-----1--1--1--1--1--1--1---3---1---3---|
G|-----2--2--2--2--2--2--2---2---2---2---|-----2--2--2--2--2--2--2---2---2---2---|
D|-----0--0--0--0--0--0--0---0---0---0---|-----0--0--0--0--0--0--0---0---0---0---|
A|-0-------------------------------------|-0-------------------------------------|
D|-0-------------------------------------|-0-------------------------------------|


E|-----1--1--1--1--1--1--1---------------|----1--1--1--1--1--1--1--1---------------|
B|-----1--1--1--1--1--1--1---3---1---3---|----1--1--1--1--1--1--1--1---3---1---3---|
G|-----2--2--2--2--2--2--2---2---2---2---|----2--2--2--2--2--2--2--2---2---2---2---|
D|-----0--0--0--0--0--0--0---0---0---0---|----0--0--0--0--0--0--0--0---0---0---0---|
A|-0-------------------------------------|-0---------------------------------------|
D|-0-------------------------------------|-0---------------------------------------|


E|-----------------------------------|---------------------------------|-----------------------------------|
B|-10------------------10--10-8------|-10------------------------------|-10------------------10--10-8--7---|
G|-9-------------------9---9--9--9---|-9-------------------------------|-9-------------------9---9--9--9---|
D|-7-------------------7---7--7--7---|-7-------------------------------|-7-------------------7---7--7--7---|
A|-7---7---9---9---7-----------------|-7---7---9---9---7---7---9---9---|-7---7---9---9---7-----------------|
D|-7---7---7---7---7-----------------|-7---7---7---7---7---7---7---7---|-7---7---7---7---7-----------------|


E|-----------------------------------|-------------------------1----|------------------------------|
B|-----------------------------------|-10------3---1---1-------1----|---------3---1---1------------|
G|-9-------------------9---9--8--7---|---------2---2---2---2---2----|---------2---2---2---2--------|
D|-7---------------------------------|---------0---0---0------------|---------0---0---0-------0----|
A|-7---7---9---9---7-----------------|-----0------------------------|-0---0------------------------|
D|-7---7---7---7---7-----------------|-----0------------------------|-0---0------------------------|


E|--------------------------|--------------------------|--------------------------|
B|--------------------------|--------------------------|--------------------------|
G|--------------------------|--------------------------|--------------------------|
D|---------------3----------|---------------3----------|---------------3----------|
A|---------------3----------|---------------3----------|---------------3----------|
D|-0---0---3--5--------12---|-0---0---3--5--------12---|-0---0---3--5--------12---|


E|--------------------------|---------------------------------|---------------------15--15-13-----|
B|--------------------------|-15------------------------------|-------------------------------15--|
G|--------------------------|---------------------------------|-----------------------------------|
D|---------------3----------|---------------------------------|-----------------------------------|
A|---------------3----------|-----0---2---2---0---0---2---2---|-0---0---2---2---0-------0---------|
D|-0---0---3--5--------12---|-----0---0---0---0---0---0---0---|-0---0---0---0---0-------0---------|


E|---------------------------------|-----------------------------------|-10------------------------------|
B|-15------------------------------|-------------------------10-8--10--|---------------------------------|
G|---------------------------------|---------------------10------------|---------------------------------|
D|---------------------------------|-----------------------------------|---------------------------------|
A|-0---0---2---2---0---0---2---2---|-0---0---2---2---0-------0---------|-0---0---2---2---0---0---2---2---|
D|-0---0---0---0---0---0---0---0---|-0---0---0---0---0-------0---------|-0---0---0---0---0---0---0---0---|


E|-------------------------15-13-----|---------------------------------|-------------------------10-8------|
B|---------------------15--------15--|-15------------------------------|---------------------10--------10--|
G|-----------------------------------|---------------------------------|-----------------------------------|
D|-----------------------------------|---------------------------------|-----------------------------------|
A|-0---0---2---2---0-------0---------|-0---0---2---2---0---0---2---2---|-0---0---2---2---0-------0---------|
D|-0---0---0---0---0-------0---------|-0---0---0---0---0---0---0---0---|-0---0---0---0---0-------0---------|


E|-17------------------------------|---------------------17--17-15-----|-17------------------------------|
B|---------------------------------|-------------------------------18--|---------------------------------|
G|---------------------------------|-----------------------------------|---------------------------------|
D|---------------------------------|-----------------------------------|---------------------------------|
A|-0---0---2---2---0---0---2---2---|-0---0---2---2---0-------0---------|-0---0---2---2---0---0---2---2---|
D|-0---0---0---0---0---0---0---0---|-0---0---0---0---0-------0---------|-0---0---0---0---0---0---0---0---|


E|---------------------15--15-13-----|
B|-------------------------------15--|
G|-----------------------------------|
D|-----------------------------------|
A|-0---0---2---2---0-------0-----0---|
D|-0---0---0---0---0-------0-----0---|





Track 2: Melody guitar


accordage mi la ré sol la mi

E|--------|--------|--------|--------|-----1---1---1---1---------------|-----1---1--1--1---1---------------|
B|--------|--------|--------|--------|---------------------3---1---3---|-----------------------3---1---3---|
G|--------|--------|--------|--------|---------------------------------|-----------------------------------|
D|--------|--------|--------|--------|---------------------------------|-----------------------------------|
A|--------|--------|--------|--------|---------------------------------|-----------------------------------|
E|--------|--------|--------|--------|---------------------------------|-----------------------------------|


E|-----1----1---1---------------|-----1--------1---------------|-----0-----0---------|
B|------------------3---1---3---|----------3-------3---1---3---|---------------------|
G|------------------------------|------------------------------|---------------------|
D|------------------------------|------------------------------|---------------------|
A|------------------------------|------------------------------|---------------------|
E|------------------------------|------------------------------|---------------------|


E|-0----------------------|-1---1---1---1---1---1---1---1---|-1---1---1---1---1---------|
B|------3---5---5---------|---------------------------------|---------------------------|
G|------------------------|---------------------------------|---------------------------|
D|------------------------|---------------------------------|---------------------------|
A|------------------------|---------------------------------|---------------------------|
E|------------------------|---------------------------------|---------------------------|


E|--------------------|--------------------|--------------------|--------------------|
B|--------------------|--------------------|--------------------|--------------------|
G|--------------------|--------------------|--------------------|--------------------|
D|----------3---3-----|----------3---3-----|----------3---3-----|----------3---3-----|
A|--------------------|--------------------|--------------------|--------------------|
E|--------------------|--------------------|--------------------|--------------------|


E|-----1---1---1---1---------------|-----1--------1---------------|-----1--------1---------------|
B|---------------------3---1---3---|----------3-------3---1---3---|----------3-------3---1---3---|
G|---------------------------------|------------------------------|------------------------------|
D|---------------------------------|------------------------------|------------------------------|
A|---------------------------------|------------------------------|------------------------------|
E|---------------------------------|------------------------------|------------------------------|


E|-----1--------1---------------|-----0---0---0---0--------0---|-0---0-------0---0---------|
B|----------3-------3---1---3---|----------------------3-------|---------3-----------------|
G|------------------------------|------------------------------|---------------------------|
D|------------------------------|------------------------------|---------------------------|
A|------------------------------|------------------------------|---------------------------|
E|------------------------------|------------------------------|---------------------------|


E|-1---1---1---1---1---1---1---1---|-1---1---1---1---1-----------5--|-5--2----2---------2----|
B|---------------------------------|----------------------3---3-----|------------------------|
G|---------------------------------|--------------------------------|------------------------|
D|---------------------------------|--------------------------------|------------------------|
A|---------------------------------|--------------------------------|------------------------|
E|---------------------------------|--------------------------------|------------------------|


E|-0---------------------------|--------------------|--------|--------|--------|--------|
B|----3----3---------0---3--3--|-3------------------|--------|--------|--------|--------|
G|-----------------------------|--------------------|--------|--------|--------|--------|
D|-----------------------------|--------------------|--------|--------|--------|--------|
A|-----------------------------|--------------------|--------|--------|--------|--------|
E|-----------------------------|--------------------|--------|--------|--------|--------|


E|--------|--------|--------|-----------------------------|-----------------|-----------------------------|
B|--------|--------|--------|-10------------10--10-8------|-10--------------|-10------------10--10-8--7---|
G|--------|--------|--------|-------------------------9---|-----------------|-----------------------------|
D|--------|--------|--------|-----------------------------|-----------------|-----------------------------|
A|--------|--------|--------|-----------------------------|-----------------|-----------------------------|
E|--------|--------|--------|-----------------------------|-----------------|-----------------------------|


E|-----------------------------|----------------------1----|---------------------------|
B|-----------------------------|-10---3---1---1------------|------3---1---1------------|
G|-9-------------9---9--8--7---|------------------2--------|------------------2--------|
D|-----------------------------|---------------------------|----------------------0----|
A|-----------------------------|---------------------------|---------------------------|
E|-----------------------------|---------------------------|---------------------------|


E|--------|--------|--------|--------|-------------|-----------15--15-13-----|-------------|
B|--------|--------|--------|--------|-15----------|---------------------15--|-15----------|
G|--------|--------|--------|--------|-------------|-------------------------|-------------|
D|--------|--------|--------|--------|-------------|-------------------------|-------------|
A|--------|--------|--------|--------|-------------|-------------------------|-------------|
E|--------|--------|--------|--------|-------------|-------------------------|-------------|


E|-------------------------|-10----------|---------------15-13-----|-------------|
B|---------------10-8--10--|-------------|-----------15--------15--|-15----------|
G|-----------10------------|-------------|-------------------------|-------------|
D|-------------------------|-------------|-------------------------|-------------|
A|-------------------------|-------------|-------------------------|-------------|
E|-------------------------|-------------|-------------------------|-------------|


E|---------------10-8------|-17----------|-----------17--17-15-----|-17----------|
B|-----------10--------10--|-------------|---------------------18--|-------------|
G|-------------------------|-------------|-------------------------|-------------|
D|-------------------------|-------------|-------------------------|-------------|
A|-------------------------|-------------|-------------------------|-------------|
E|-------------------------|-------------|-------------------------|-------------|


E|-----------15--15-13-----|
B|---------------------15--|
G|-------------------------|
D|-------------------------|
A|-------------------------|
E|-------------------------|




La vidéo qui va avec :





La partition tuxguitar à télécharger …
http://www.guitariff.net/tabs/beatles/come_together_guitar-pro/#top


La vidéo officielle :
http://www.youtube.com/watch?v=03xjifAFagY

Bon courage
avatar
Invité
Invité


Revenir en haut Aller en bas

Re: Come together des Beatles avec vidéo

Message par Invité le Mar 10 Juil 2012 - 14:49

ajout vidéo ...
avatar
Invité
Invité


Revenir en haut Aller en bas

Voir le sujet précédent Voir le sujet suivant Revenir en haut

- Sujets similaires

 
Permission de ce forum:
Vous ne pouvez pas répondre aux sujets dans ce forum