supermassive black hole de Muse avec vidéo

Voir le sujet précédent Voir le sujet suivant Aller en bas

supermassive black hole de Muse avec vidéo

Message par Invité le Dim 8 Juil 2012 - 9:58

Encore une chanson de Muse …supermassive black hole


Très bon exercice pour le travail rythmique !

Je vous ai mâché le boulot en mettant sur une ligne les battements à jouer

Et sur la ligne suivante tous les aller retours  (pour se rendre compte des temps d’attente)

Et sur la ligne suivante je compte les temps de la mesure …


Spoiler:


intro
E|---------------|----------------|
B|---------------|----------------|
G|---------------|----------------|
D|---------------|----------------| x3
A|----10b--------|---10b----------|
E|-0-------0--0--|-0-----0---0-0--|
---b--h----h--h----b--b--h---h-b---
---bhbh-b--h-bh----bh-b--h-b-h-b-h-
---1-2--3----4-----1--2----3---4---  

E|-----------------------------------------|
B|-----------------------------------------|
G|-----------------------------------------|
D|--------------------------7br7--5h7p5----|
A|----10b------------10b-----------------7-|
E|-0-------0--0----0-----x-----------------|
---b--h----h--h----b--b--h--b-----b------h--
---bhbh-b--h-bh----bh-b--h--b--h--b------h--
---1-2--3----4-----1--2-----3-----4---------

7br7 veut dire :
je joue le 7, je le tire d’un ton (bend) et je le relâche (release)  



à partir d’ici on passe en aller retour simple
une note à descendre, une note à monter et ainsi de suite …

Main Riff/Verse 1

E|-------------------------------------------------------------------------
B|-------------------------------------------------------------------------
G|-------------------------------------------------------------------------
D|-------------------------------------------------------------------------
A|-----10b---------------10b-----7-7-5-----10b---------------10b-----7-7-8-E|-0-0-----0-0-3-3-3-0-0-----0-0-5-5-3-0-0-----0-0-3-3-3-0-0-----0-0-5-5-6-  


E|-----------------------------------------------------------------
B|-----------------------------------------------------------------
G|-----------------------------------------------------------------
D|-----------------------------------------------------------------
A|-----10b---------------10b-----7-7-5-----10b---------------10b---
E|-0-0-----0-0-3-3-3-0-0-----0-0-5-5-3-0-0-----0-0-3-3-3-0-0-----0-  


E|---------------|
B|---------------|
G|---------------|
D|-7br7--5h7p5---|
A|-------------7-|
E|---------------|






la vidéo qui va avec :



il me reste le refrain à faire, mais c'est dans le même esprit ...

je le rajouterai plus tard !

mais vous pouvez le trouver dans les tablatures du net ...


à plus
avatar
Invité
Invité


Revenir en haut Aller en bas

Voir le sujet précédent Voir le sujet suivant Revenir en haut

- Sujets similaires

 
Permission de ce forum:
Vous ne pouvez pas répondre aux sujets dans ce forum