Intro:Hey joe de Jimi hendrix:

Voir le sujet précédent Voir le sujet suivant Aller en bas

Intro:Hey joe de Jimi hendrix:

Message par Riffraff le Lun 2 Juil 2012 - 12:17

Voici l'intro

E--0----0--------------------0---------------------------0------------
B--3/5--3--------------------0---------------------------0------------
G----------4/2--0--0--1------1---------------------------1------------
D------------------0--2----2------4/5---4/5---4--2-------------------
A------------------------2--------4/5---4/5---4--2-------------------
E----------------------0--------0------0-----0-------0-----0----------


E----------------------
B--------7-----7-------
G--------7-----7-------
D----7h9---7h9---9----
A----------------------
E----------------------

Une intro très rapide!

Essayez de la faire au Médiator!
avatar
Riffraff
Admin
Admin

Messages : 824
Date d'inscription : 07/12/2011

http://forumdesguitaristes.forumsmusic.com

Revenir en haut Aller en bas

Voir le sujet précédent Voir le sujet suivant Revenir en haut

- Sujets similaires

 
Permission de ce forum:
Vous ne pouvez pas répondre aux sujets dans ce forum