Solo:I love rock'n roll-Jett joan

Voir le sujet précédent Voir le sujet suivant Aller en bas

Solo:I love rock'n roll-Jett joan

Message par Riffraff le Dim 1 Juil 2012 - 19:19

Solo
Spoiler:


e|-----------------------------|e
B|-----------------------------|B
G|----------------------7~~~---|G
D|--2-2-----------------6~~~---|D
A|--2-2-----------------7~~~---|A
E|--0-0--2B----2B--0-----------|E

e|------------------------12-----------------------|e
B|---------------------------------12-----12-------|B
G|---------9--11-----11B------11B---------11B------|G
D|----9/11-----------------------------------------|D
A|-------------------------------------------------|A
E|-------------------------------------------------|E


e|-----------------------------------|e
B|--------------------------12-------|B
G|---9----9H11------------9----------|G
D|-----11--------XX--9H11------------|D
A|-----------------------------------|A
E|-----------------------------------|E

e|----------------------------------------------------|e
B|----------------------------------------------------|B
G|--9-X-9/8---8-X-8/6---6-X-6/4---4-X-4/2----2-X-2/1--|G
D|----------------------------------------------------|D
A|----------------------------------------------------|A
E|----------------------------------------------------|E


e|--------------------|e
B|--------------------|B
G|--1-1-1-------------|G
D|--------4-2---2~----|D
A|------------4-------|A
E|--------------------|E
avatar
Riffraff
Admin
Admin

Messages : 824
Date d'inscription : 07/12/2011

http://forumdesguitaristes.forumsmusic.com

Revenir en haut Aller en bas

Voir le sujet précédent Voir le sujet suivant Revenir en haut

- Sujets similaires

 
Permission de ce forum:
Vous ne pouvez pas répondre aux sujets dans ce forum