Solo: Come as you are NIRVANA

Voir le sujet précédent Voir le sujet suivant Aller en bas

Solo: Come as you are NIRVANA

Message par Riffraff le Dim 1 Juil 2012 - 18:52

Spoiler:


solo
e-----------------------------------------------------------------------------|
b------0--0--0--0----------0----0--0----------0----0--0--------0-----------0--|
g--6---9--9-11-11\6--6--6--9---11-11\6--6--6--9---11-11/13-13-11-11--9--9--0--|
d-----------------------------------------------------------------------------|
a-----------------------------------------------------------------------------|
e-----------------------------------------------------------------------------|

e-----------------------------------------------------------------------------|
b--0-----0---0--0-0--------0---0--0----0-----0---0--0-----0-----0-------0--0--|
g--6--6--9--11-11\6--6--6--9--11-11\6--6--6--9--11-11/13-13-13-11-11-9--9--6--|
d-----------------------------------------------------------------------------|
a-----------------------------------------------------------------------------|
e-----------------------------------------------------------------------------|

e-----------------------------------------------------------------------------|
b---0-----0---0----0--------0---0----0--------0------0-------0------0--0----0-|
g---6--6--9--11-11\6--6--6--9--11-11\6--6--6--9--9--11-11/13---13--11--9--9---|
d-----------------------------------------------------------------------------|
a-----------------------------------------------------------------------------|
e-----------------------------------------------------------------------------|

e-----------------------------------------------------------------------------|
b---0-----0---0--------------0---0--0----------0---0--0-----------0--0--0-----|
g---6--6--9--11--11\6--6--6--9--11-11\6--6--6--9--11-11/13-13-13-11--0--0-----|
d-----------------------------------------------------------------------------|
a-----------------------------------------------------------------------------|
e-----------------------------------------------------------------------------|



Dernière édition par Riffraff le Mer 1 Aoû 2012 - 12:01, édité 2 fois
avatar
Riffraff
Admin
Admin

Messages : 824
Date d'inscription : 07/12/2011

http://forumdesguitaristes.forumsmusic.com

Revenir en haut Aller en bas

Re: Solo: Come as you are NIRVANA

Message par Invité le Dim 1 Juil 2012 - 21:10

houuuu !!!

je vais le proposer au fiston celui ci ^^

merci pour le partage !
avatar
Invité
Invité


Revenir en haut Aller en bas

Re: Solo: Come as you are NIRVANA

Message par Invité le Lun 2 Juil 2012 - 8:17

Heuuu ...tu l'as testé celle ci ???

ça sonne pas terrible le sol à vide ...

et pour le 13, c'est plus sympa de faire un bend d'un ton à partir du 11 ...
avatar
Invité
Invité


Revenir en haut Aller en bas

Re: Solo: Come as you are NIRVANA

Message par Riffraff le Lun 2 Juil 2012 - 9:11

A vrai dire j'ai plusieurs versions.... Moi je joue surtout celle de songsterr (tapez come as you ares puis changez d'intrument pour prendre la guitare de curt cobain):
http://www.songsterr.com

Désolé mais là je ne peux pas mettre le lien car je suis sur mon telephone... :/

Euh ...pefmo, le sol c'est normal car derriere il y a une autre guitare et pour le bend c'est vrai ca change..
avatar
Riffraff
Admin
Admin

Messages : 824
Date d'inscription : 07/12/2011

http://forumdesguitaristes.forumsmusic.com

Revenir en haut Aller en bas

Re: Solo: Come as you are NIRVANA

Message par Contenu sponsorisé


Contenu sponsorisé


Revenir en haut Aller en bas

Voir le sujet précédent Voir le sujet suivant Revenir en haut

- Sujets similaires

 
Permission de ce forum:
Vous ne pouvez pas répondre aux sujets dans ce forum