[POP ROCK - TRES FACILE] Pink - So what

Voir le sujet précédent Voir le sujet suivant Aller en bas

[POP ROCK - TRES FACILE] Pink - So what

Message par Clash le Ven 15 Juin 2012 - 18:40

Je vous propose un morceau très simple (le premier que j'ai appris il me semble): So what, de Pink.

Il n'y a aucune technique particulière requise pour jouer ce morceau, contentez-vous de suivre la tablature, le riff en aller-retour, les accords en aller.

Riff d'intro, de couplet et d'outro:
e--------------------------------------------|
B--------------------------------------------|
G--------------------------------------------|
D-----------7--------------------------------|x6
A--9--7--9-----9--7--------------------------|
E--------------------9--9--7--9--9--7--2-----|


Ou

E------------------------------------------|
B------------------------------------------|
G-----------2------------------------------|
D--4--2--4-----4--2------------------------|
A--------------------4---4--2--4--4--2-----|
E---------------------------------------2--|

Ou

e|------------------------------------------|
B|------------------------------------------|
G|-----------0------------------------------|
D|--2--0--2-----2--0------------------------|
A|--------------------2---2--0--2--2--0-----|
E|---------------------------------------0--|

Couplet:

E------------------|
B------------------|
G-------6-------7--|
D---7---6---4---7--|
A---7---4---4---5--|
E---5-------2------|

Solo:
E------------------------------------------------------------|
B---10----------10----------10-------------------------------|
G-------9--7--6----9--7--6------9--7--6--4--2--4--6----------|
D------------------------------------------------------------| 2x
A------------------------------------------------------------|
E------------------------------------------------------------|


édité par pefmo :

la vidéo d'origine pour mieux se rendre compte !

[Vous devez être inscrit et connecté pour voir ce lien]
avatar
Clash
Je suis actif
Je suis actif

Messages : 138
Date d'inscription : 11/03/2012
Age : 21

Revenir en haut Aller en bas

Re: [POP ROCK - TRES FACILE] Pink - So what

Message par Riffraff le Ven 15 Juin 2012 - 18:55

Merci pour le partage!^^

Ps:pefmo=> je vais rajouter des solos ...
avatar
Riffraff
Admin
Admin

Messages : 824
Date d'inscription : 07/12/2011

http://forumdesguitaristes.forumsmusic.com

Revenir en haut Aller en bas

Re: [POP ROCK - TRES FACILE] Pink - So what

Message par Invité le Ven 15 Juin 2012 - 21:19

très sympa cette chanson !

merci Clash !!

ma version préférée est la deuxième ! en 2-4 ...

j'essaierai de faire une petite vidéo !

je me suis permis d'édité ton sujet pour ajouter la vidéo !!^^
avatar
Invité
Invité


Revenir en haut Aller en bas

Re: [POP ROCK - TRES FACILE] Pink - So what

Message par Contenu sponsorisé


Contenu sponsorisé


Revenir en haut Aller en bas

Voir le sujet précédent Voir le sujet suivant Revenir en haut

- Sujets similaires

 
Permission de ce forum:
Vous ne pouvez pas répondre aux sujets dans ce forum