Oh no ! Oh my ! - My reeks and seeks TUTO

Voir le sujet précédent Voir le sujet suivant Aller en bas

Oh no ! Oh my ! - My reeks and seeks TUTO

Message par Govi le Lun 11 Juin 2012 - 19:23

Petite chanson sympa pas trop dure :

[Vous devez être inscrit et connecté pour voir ce lien]

Tout est dans la vidéo !

Tab :

e|-------3--2-3------------------3--2-3-----------
B|----3-----------3--0--3--2--3-----------3--1--3-
G|-0----------------------------------------------

La chanson de Oh no ! Oh my ! [Vous devez être inscrit et connecté pour voir ce lien]

_Signature________♪♫
Govi !
avatar
Govi
Je suis assez actif
Je suis assez actif

Messages : 30
Date d'inscription : 11/06/2012
Age : 23

Revenir en haut Aller en bas

Re: Oh no ! Oh my ! - My reeks and seeks TUTO

Message par Invité le Mar 12 Juin 2012 - 7:16


très sympa le petit riff !!^^

merci pour le partage !

ajouté dans l'index ...
avatar
Invité
Invité


Revenir en haut Aller en bas

Re: Oh no ! Oh my ! - My reeks and seeks TUTO

Message par Invité le Mer 13 Juin 2012 - 16:11

elle est vraiment sympa cette chanson !!

du coup, je l'ai bossé un peu !

voici la tab en plus complet et avec le choix capo ou pas capo !!



Spoiler:




Capo 2

intro

e|-------------------3--2--3-----------------3--2--3-----------
B|-1--1--1--3-----3-----------3--0--3-----3-----------3--1--3--
G|-------------0-----------------------2-----------------------


à la suite … en boucle …

e|-------3--2--3------------------3--2--3----------
B|----3-----------3--0--3-----3-----------3--1--3--
G|-0-----------------------2-----------------------


et les accords sol lam do



ou sans capo !



(Intro)
e|--------------------------------------------|
B|---------------------10--9--10--------------|
G|---7--7--7--9-----9-------------9------9----|
D|---------------7-------------------11-------|
A|--------------------------------------------|
E|--------------------------------------------|

e|--------------------------------------------|
B|---------10--9--10--------------------------|
G|------9-------------9--7--9-----------------|
D|---9----------------------------------------|
A|--------------------------------------------|
E|--------------------------------------------|

Then the pattern repeats

e|--------------------------------------------------------------|
B|-------10--9--10------------------10--9--10-------------------|
G|----9-------------9------9-----9-------------9--7--9----------|
D|-7-------------------11-----9---------------------------------|
A|--------------------------------------------------------------|
E|--------------------------------------------------------------|

bien sur les accords changent sans capo la sim ré







un autre lien pour bosser :

http://tp.ultimate-guitar.com/o/oh_no_oh_my/reeks_and_seeks_tab_online.html

il y a d'autres pistes dans ce lien pour jouer une deuxième guitare ...


bon courage !
avatar
Invité
Invité


Revenir en haut Aller en bas

Re: Oh no ! Oh my ! - My reeks and seeks TUTO

Message par Contenu sponsorisé


Contenu sponsorisé


Revenir en haut Aller en bas

Voir le sujet précédent Voir le sujet suivant Revenir en haut

- Sujets similaires

 
Permission de ce forum:
Vous ne pouvez pas répondre aux sujets dans ce forum