FREIGHT TRAIN

Voir le sujet précédent Voir le sujet suivant Aller en bas

Tutoriel FREIGHT TRAIN

Message par Invité le Lun 11 Juin 2012 - 8:22

FREIGHT TRAIN

Basses alternées suite


On continue les basses alternées … avec ou sans onglet de pouce !

Ici on avait vu comment faire uniquement les 3 basses
http://forumdesguitaristes.forumsmusic.com/t300-les-basses-alternees-en-picking


maintenant, on va ajouter une mélodie avec les autres cordes !


On continue à alterner les basses,

Mais en plus, on va alterner aussi en jouant une note seule puis 2 notes ensemble,

Ce qui donne pour la main droite,

Pouce seul puis pouce avec et un autre doigt et on recommence !

L’autre doigt,
C’est l’index si on doit jouer la corde de sol
C’est le majeur si on doit jouer la corde de si
C’est l’annulaire si on doit jouer la corde de mi aigu


Tout cela est indiqué d’une manière générale !

Car en fait, on va suivre la partition … !

On attaque donc un standard du traditionnel folk,


FREIGHT TRAIN…

Voici donc ma version, mais yen a des centaines d’autres …


La video




ne vous occuper pas de mon capodastre ...
ma guitare est accordée un ton en dessous, ré sol do fa la ré avec des cordes médium ...
le capodastre en deuxième case me permet de sonner comme vous en accordage standard !



la tablature :

Spoiler:



un petit pont, à mettre au début ou entre les couplets...

e|----------
B|----------
G|----------
D|----------
A|---- 2--0-
E|--3-------


on attaque par un espèce de sol modifié

e|---3-------0---------------------------------3--------1------------|
B|-------------------3-------1------0--------------------------------|
G|-------------------------------------------------------------------|
D|-------2-------2-------2------2-------0----------0--------0------0-|
A|---3---------------3-----------------------------------------------|
E|-----------3---------------3------3-------3-----------3-------3----|


on continue avec un do

e|---3-------1-------0---------------------------3-------0-------------|
B|---------------------------3-------1---------------------------------|
G|---------------------------------------------------------------------|
D|-------2-------2-------0-------0-------2-----------2-----------0---1-|
A|-----------------------------------3-------------------3---3---------|
E|---0-------0-------3-------3---------------3-------------------------|



on continue avec un fa

e|---0-----------1-------0------------------------------------------|
B|----------------------------------3po0---1-----------3-------1----|
G|------------------------------------------------------------------|
D|-------2-----------2-------2-----------------3-----------3------3-|
A|------------------------------------------------------------------|
E|---0-------0-----------0-------0---------1-------1-----------1----|



après le fa, encore un do...et le final

e|-----------0--------------------------1-----0---------|
B|---3---------------1-----------0----------------3---1-|
G|---------------------------2--------------------------|
D|-------3-------2-------2------------------------0-----|
A|-----------3----------------------------------------3-|
E|---1---------------3-------3-------3-----3------------|



allez, bon courage !
avatar
Invité
Invité


Revenir en haut Aller en bas

Tutoriel Re: FREIGHT TRAIN

Message par Riffraff le Lun 11 Juin 2012 - 11:33

Salut,

donc si quelqu'un les veux => envoyez moi un MP :p
avatar
Riffraff
Admin
Admin

Messages : 824
Date d'inscription : 07/12/2011

http://forumdesguitaristes.forumsmusic.com

Revenir en haut Aller en bas

Voir le sujet précédent Voir le sujet suivant Revenir en haut

- Sujets similaires

 
Permission de ce forum:
Vous ne pouvez pas répondre aux sujets dans ce forum