Théorie accords de puissance

Voir le sujet précédent Voir le sujet suivant Aller en bas

Tutoriel Théorie accords de puissance

Message par Invité le Mar 29 Mai 2012 - 8:25

Théorie accords de puissance


Power chord in english …


Pour attaquer ce pavé en toute tranquillité,

Il faut avoir digéré le premier pavé de la théorie sur les notes !

http://forumdesguitaristes.forumsmusic.com/t232-theorie-les-notes-de-musique



Pourquoi ?

Ben parce qu’un accord de puissance,

c’est 2 notes jouées en même temps !

Et pas n’importe lesquels !

La tonique et la quinte …

C’est quoi ça ?


Reprenons la gamme de do : do ré mi fa sol la si et do …

La dedans :

Do est la tonique, celle qui donne le ton !

Ré est la seconde (un ton plus loin)

Mi est la tierce (2 tons plus loin)

Fa est la quarte (2 tons et demi plus loin)

Et sol est la quinte (3 tons et demi plus loin)


Voilà !! La quinte de do,

c’est le sol (7 cases ou 3 tons et demi plus loin)



bon, prenons un autre exemple avec l’accord de mi …

la tonique, c’est la note mi

glissez 7 cases plus loin, et vous êtes en ???

ben heuuuu … quinte c’est compter jusqu’à 5

mi fa sol la si … c’est si !

vérifions si on a bien les 7 cases d’écart !
mi à fa =1 case
fa à sol =2 cases
sol à la =2 cases
la à si =2 cases … ça fait bien 7 cases …


donc pour l’accord de puissance de mi,

il nous faut les notes mi et si

on va jouer le mi sur la corde mi grave en 0, à vide quoi !

et on va jouer le si sur la corde la en case 2 …



e|-------------------------------mi aigu
B|-------------------------------si
G|-------------------------------sol
D|-------------------------------ré
A|--2--3--5--7--8--10--12--14----la
E|--0--1--3--5--7--8---10--12----mi grave

---Mi-fa-sol-la-si-do--ré--mi



et si on glisse cette accord de mi d’une case on a un accord de fa

et ainsi de suite !



bon !! On passe à la pratique !!


Avec un petit bout de Noir Désir pour se faire plaisir !


le X veut dire qu’on joue une note étouffée …

en frôlant les cordes avec les doigts de la main gauche !


la tablature à jouer … regardez d’abord la vidéo !!^^



e|-------------------------------mi aigu
B|-------------------------------si
G|-------------------------------sol
D|-------------------------------ré
A|--7s8--8---7--7---12--12---7---la
E|--5s6--6-x-5--5-x-10--10-x-5---mi grave


e|--------------------------------mi aigu
B|--------------------------------si
G|--------------------------------sol
D|--------------------------------ré
A|--7s8--8---7--7---3—3-3-3-3-3-3-la
E|--5s6--6-x-5--5-x-1-1-1-1-1-1-1-mi grave


e|-------------------------------mi aigu
B|-------------------------------si
G|-------------------------------sol
D|-------------------------------ré
A|--7s8--8---7--7---12--12---7---la
E|--5s6--6-x-5--5-x-10--10-x-5---mi grave


e|---------------------------------------mi aigu
B|---------------------------------------si
G|---------------------------------------sol
D|---------------------------------------ré
A|--7s8--8---7--7---12-12-12-12-12-12-12-la
E|--5s6--6-x-5--5-x-10-10-10-10-10-10-10-mi grave



La vidéo qui va avec :





L’original :
http://www.youtube.com/watch?v=6EKmYhFk42M


A plus
avatar
Invité
Invité


Revenir en haut Aller en bas

Tutoriel Re: Théorie accords de puissance

Message par Takaminoman le Mer 22 Aoû 2012 - 15:22

On peut rajouter que ces accord sont des accords dits "cinquièmes" et sont notés C5, D5 ... etc .... sur les tablatures.

Et pour être tout à fait complet, il est possible de doubler la tonique par son octave, ce qui signifie qu'il faut rajouter un doigt deux cordes en dessous de la tonique, et deux cases après.

Pour reprendre la partie de chanson ci dessus, ca donnerait :

e|------------------------------------------mi aigu
B|----------------------------------------si
G|---------------------------------------sol
D|--7s8--8---7--7---12--12---7------ré
A|--7s8--8---7--7---12--12---7------la
E|--5s6--6-x-5--5-x-10--10-x-5------mi grave


e|----------------------------------------------------mi aigu
B|---------------------------------------------------si
G|---------------------------------------------------sol
D|--7s8--8---7--7----3--3-3-3-3-3-3---------ré
A|--7s8--8---7--7----3—3-3-3-3-3-3----------la
E|--5s6--6-x-5--5-x-1-1-1-1-1-1-1-------------mi grave


e|--------------------------------------------------mi aigu
B|-------------------------------------------------si
G|-----------------------------------------------sol
D|--7s8--8---7--7---12--12---7----------ré
A|--7s8--8---7--7---12--12---7------------la
E|--5s6--6-x-5--5-x-10--10-x-5------------mi grave


e|----------------------------------------------------------------mi aigu
B|-----------------------------------------------------------------si
G|----------------------------------------------------------------sol
D|--8s8--8---7--7---12-12-12-12-12-12-12-------------ré
A|--7s8--8---7--7---12-12-12-12-12-12-12--------------la
E|--5s6--6-x-5--5-x-10-10-10-10-10-10-10--------------mi grave

avatar
Takaminoman
Je suis hyper actif
Je suis hyper actif

Messages : 403
Date d'inscription : 07/08/2012
Localisation : La terre du milieu

Revenir en haut Aller en bas

Voir le sujet précédent Voir le sujet suivant Revenir en haut

- Sujets similaires

 
Permission de ce forum:
Vous ne pouvez pas répondre aux sujets dans ce forum