tuto première rythmique blues en mi et 12 mesures niveau 2

Voir le sujet précédent Voir le sujet suivant Aller en bas

Tutoriel tuto première rythmique blues en mi et 12 mesures niveau 2

Message par Invité le Mer 16 Mai 2012 - 16:44

Deuxième niveau blues en mi …

vous avez transpiré sur le TUTO rythmique blues en mi pour débutant niveau 1 ??

http://forumdesguitaristes.forumsmusic.com/t187-tuto-premiere-rythmique-blues-en-mi-et-12-mesures-niveau-1


voici la suite logique ! ^^

On va habiller la rythmique de quelques notes choisies ...

On reprend la grille standard :
4 mesures en mi
2 mesures en la
2 mesures en mi
1 mesure en ré
1 mesure en la
2 mesures en mi ( ou turnaround ) et ça repart !


Dans chaque mesure, jouer 4 temps, c’est pas facile … on s’y perd rapidement …

Par contre, compter jusqu’à 2, pas de soucis !! ^^
Ya même plus besoin de compter d’ailleurs, ça devient automatique !
C’est ce qu’on va faire …


Pour chaque mesure, on va garder 5 battements, un aller et 2 aller-retour,

Et on va remplacer les 3 derniers battements par quelques notes …


On peut faire un truc comme ça :

3 fois la même chose pour commencer (ya que la qu’il faut compter)
et à la quatrième mesure, on va faire une transition pour passer en la …

première---------mi-----------mesure--deuxième------la---------mesure
D--2-----2--2-----2--2---------------2--2-----2--2-----2--2---------------2--
A--2-----2--4-----4--2------------------2-----2--4-----4--2------------------
E--0-----0--0-----0--0----0--3H4------0-----0--0-----0--0----0--3H4------

troisième---------mi-----------mesure--quatrième------mi---------mesure
D--2-----2--2-----2--2---------------2--2-----2--2-----2--2----------0------
A--2-----2--4-----4--2------------------2-----2--4-----4--2------------------
E--0-----0--0-----0--0----0--3H4------0-----0--0-----0--0----0--3-----3---


on refait le même truc qu’en mi, puis une transition pour repasser en mi

cinquième--------la----------mesure--sixième--------la----------mesure
G-------------------------------------2-------------------------------------------
D--2-----2--4------4--2----------------2-----2--4------4--2------------------
A--0-----0--0------0--0--0--3H4-----0-----0--0------0--0------------------
E-----------------------------------------------------------------7--6--5--0--3-


à nouveau le même truc en mi puis une transition pour passer en si

septième----------mi----------mesure--huitième-------mi---------mesure
D--2-----2--2-----2--2---------------2--2-----2--2-----2--2-----------------
A--2-----2--4-----4--2------------------2-----2--4-----4--2------------------
E--0-----0--0-----0--0----0--3H4------0-----0--0-----0—0--0-4-5-6-7--


2 transitions nouvelles …

neuvième----------si-----------mesure--dixième--------la---------mesure
D--9-----9--9------9--9----9--9---9--8--7-----7--7------7--7----7--7--7—
A--9----9--11----11--9----9--11--9--8--7-----7--9------9--7----7--9--7--
E--7-----7--7------7--7-----7--7---7--6--5-----5--5------5--5----5--5--5--


puis un turnaround pour finir les 12 mesures et ça repart !

onzième---------mi------------mesure--douzième -----mi----------mesure
G-----------------------------------------------------------------------4---------------
D---------------(2)--------0---------2--------3-----4-4-4-4-4-4-4---2-------------
A----------------2----------------0-----0--1-----1--2-2-2-2-2-2-2---0--------------
E---7-6-5-0-3--0--0--3-----3----------------------------------------------3---------

La vidéo qui va avec :



Bon courage !^^


edit :


une autre vidéo plus lente et en acoustique …

avec quelques variantes pour la mesure en la ...

la gratte est accordée un ton plus bas …

ça devient donc un blues en ré !! ^^

avatar
Invité
Invité


Revenir en haut Aller en bas

Voir le sujet précédent Voir le sujet suivant Revenir en haut

- Sujets similaires

 
Permission de ce forum:
Vous ne pouvez pas répondre aux sujets dans ce forum