tuto première rythmique blues en mi et 12 mesures niveau 1

Voir le sujet précédent Voir le sujet suivant Aller en bas

Tutoriel tuto première rythmique blues en mi et 12 mesures niveau 1

Message par Invité le Mer 16 Mai 2012 - 16:41

Voici donc les bases pour faire un petit blues en 12 mesures …

Chaque mesure a 4 temps

bon, le rythme maintenant ! il nous faut du ternaire …

comment faire ?
compter 3 1 2 3 1 2 3 1 2 3 1 2 3 1 …
et vous jouez seulement sur le 3 et le 1 … pas sur le 2

ça doit ressembler à un battement de cœur …
toum aa toum toum aa toum toum aa toum toum aa toum toum aa …

on peut jouer aux doigts ou au médiator,
en aller retour ou seulement en aller (vers le bas)

l’idée de base, c’est de commencer très lentement …
de toute façon, un blues n’a pas besoin d’être rapide !


Que mettre dans ces 12 mesures ??? 3 accords !


Petits rappels sur les notes :
il y en a 7 : do ré mi fa sol la si et ça recommence !

les intervalles entre les notes
do 2 ré 2 mi 1 fa 2 sol 2 la 2 si 1 do … et ça recommence !

les chiffres sont les nombres de demi tons ou cases de guitare,
toujours 2 sauf pour les notes en « i »

comme accords,
on va avoir besoin du premier (do)
du quatrième (fa) 2+2+1 = 5 cases ou demi tons plus loin
et du cinquième (sol) 2+2+2+2+1+2 = 7 cases plus loin !

si on ne veut pas commencer sur un do mais sur un la,
on respecte les mêmes écarts,
et ça donne la ré mi !

si on veut jouer en mi,
on respecte les mêmes écarts,
et ça donne mi la si …

on peut les jouer en respectant les écarts 5 et 7
en glissant sur le manche comme ça :

mi la si
0 5 7
0 5 7
0 5 7
2 7 9
2 7 9
0 5 7

on peut aussi faire un « la » plus simple

mi la si
0 0 7
0 1 7
0 2 7
2 2 9
2 0 9
0 0 7

j’ai dessiné ici des accords mineurs,
mais comme on ne joue que les 2 basses,
on ne voit pas les notes qui déterminent le côté mineur ou majeur ou septième
c’est ce qu’on appelle des power cords (accords de puissance) très utilisés en hard rock !



la grille maintenant … c'est-à-dire ce qu’on met dans les 12 mesures !

la grille standard :
4 mesures en mi
2 mesures en la
2 mesures en mi
1 mesure en si
1 mesure en la
2 mesures en mi et ça repart !

et c’est la crotte !
car 2 mesures en fin et 4 au début, ça fait 6 mesures identiques à se suivre …
et on s’y perd !

pour éviter ça 2 solutions

changer le début
1 mesure en mi
1 mesure en la
2 mesures en mi
2 mesures en la
2 mesures en mi
1 mesure en si
1 mesure en la
2 mesures en mi et ça repart !

ou changer la fin
4 mesures en mi
2 mesures en la
2 mesures en mi
1 mesure en si
1 mesure en la
1 mesure en mi
1 mesure turn over et ça repart !

on peut aussi changer les 2, début et fin !
ça fait une troisième solution,
et ça permet de varier son jeu pour pas s’ennuyer !



la partoch de base maintenant :

on ne va que sur les 2 (ou 3) cordes basses

première---------mi-----------mesure--deuxième------la---------mesure
D--2-----2--2-----2--2-----2--2----2--2-----2--4------4--2----2--4----4---
A--2-----2--4-----4--2-----2--4----4--0-----0--0------0--0----0--0----0---
E--0-----0--0-----0--0-----0--0------------------------------------------------

troisième---------mi-----------mesure--quatrième------mi---------mesure
D--2-----2--2-----2--2-----2--2----2--2-----2--2-----2--2-----2--2----2----
A--2-----2--4-----4--2-----2--4----4--2-----2--4-----4--2-----2--4----4----
E--0-----0--0-----0--0-----0--0----0--0-----0--0------0--0----0--0----0-----

cinquième--------la----------mesure--sixième--------la----------mesure
D--2-----2--4------4--2----2--4----4--2-----2--4------4--2----2--4----4----
A--0-----0--0------0--0----0--0----0--0-----0--0------0--0----0--0----0----
E----------------------------------------------------------------------------------

septième----------mi----------mesure--huitième-------mi---------mesure
D--2-----2--2-----2--2-----2--2----2--2-----2--2-----2--2-----2--2----2----
A--2-----2--4-----4--2-----2--4----4--2-----2--4-----4--2-----2--4----4----
E--0-----0--0-----0--0-----0--0----0--0-----0--0------0--0----0--0----0----

neuvième----------si-----------mesure--dixième--------la---------mesure
D--9-----9--9------9--9----9--9------9--7-----7--7------9--7----7--7----7--
A--9----9--11----11--9----9--11---11--7-----7--9------9--7----7--9----9--
E--7-----7--7------7--7-----7--7-----7--5-----5--5------5--5----5--5----5---

onzième---------mi------------mesure--douzième -----mi----------mesure
D--2-----2--2-----2--2-----2--2----2--2-----2--2-----2--2-----------------
A--2-----2--4-----4--2-----2--4----4--2-----2--4-----4--2-----------------
E--0-----0--0-----0--0-----0--0----0--0-----0--0-----0--0------5--6--7---

La vidéo qui va avec :




Bon courage !
avatar
Invité
Invité


Revenir en haut Aller en bas

Tutoriel Re: tuto première rythmique blues en mi et 12 mesures niveau 1

Message par Riffraff le Ven 29 Juin 2012 - 7:20

Apres avoir fait cet exercice...

Vous pouvez appliquer cette méthode là:

[Vous devez être inscrit et connecté pour voir ce lien]
avatar
Riffraff
Admin
Admin

Messages : 824
Date d'inscription : 07/12/2011

http://forumdesguitaristes.forumsmusic.com

Revenir en haut Aller en bas

Voir le sujet précédent Voir le sujet suivant Revenir en haut

- Sujets similaires

 
Permission de ce forum:
Vous ne pouvez pas répondre aux sujets dans ce forum