riff thormann music telecaster country2

Aller en bas

Resolu riff thormann music telecaster country2

Message par pierre lecho le Sam 12 Mai 2012 - 11:16

bonjour,
je cherche la tablature de ce super riff country 2 qui est sur le site de Thormann, quand on regarde les telecaster ;
est ce que quelqu 'un connait la tablature?

pierre lecho
Je suis un nouveau
Je suis un nouveau

Messages : 1
Date d'inscription : 12/05/2012

Revenir en haut Aller en bas

Resolu Re: riff thormann music telecaster country2

Message par Invité le Sam 12 Mai 2012 - 14:11

Ce sont des riffs de country …

Tu peux en retrouver dans pleins de titres …

La guitare doit être accordée en dropped D …


C’est à dire que le mi grave descend en ré

Donc accordé en ré la ré sol si mi

J’ai commencé à chercher …


Essaye ce truc là :

Spoiler:



E|-5--------5-------|-5--------5------|-5----------------|-----------------|
B|-----5b-------5b--|-----5b------5b--|----5b------------|-----------------|
G|------------------|-----------------|------------------|-----------------|
D|------------------|-----------------|-----------0------|-----------------|
A|------------------|-----------------|------------------|-----------------|
D|------------------|-----------------|---------------0--|-0---0-0---0-0-0-|



E|---------------------------------|---------------------------------|
B|---------------------------------|---------------------------------|
G|---------------------------------|---------------------------------|
D|-------------------------0-------|---------------------------------|
A|-2-h-3-----------2-h-3-----------|---------2-h-3-------------------|
D|---------0---0---------------0---|-0---0-----------0---0-----------|





Bon courage pour la suite !
avatar
Invité
Invité


Revenir en haut Aller en bas

Resolu Re: riff thormann music telecaster country2

Message par Riffraff le Dim 13 Mai 2012 - 16:16

^^ merci pour ce partage pef,et Pierre,pense a te présenter s'il te plait ^^ merci..
avatar
Riffraff
Admin
Admin

Messages : 826
Date d'inscription : 07/12/2011

http://forumdesguitaristes.forumsmusic.com

Revenir en haut Aller en bas

Resolu Re: riff thormann music telecaster country2

Message par Contenu sponsorisé


Contenu sponsorisé


Revenir en haut Aller en bas

Revenir en haut

- Sujets similaires

 
Permission de ce forum:
Vous ne pouvez pas répondre aux sujets dans ce forum