Angie des Rolling Stones intro avec vidéo

Voir le sujet précédent Voir le sujet suivant Aller en bas

Angie des Rolling Stones intro avec vidéo

Message par Invité le Mer 9 Mai 2012 - 14:36

voici “ma” version de l’intro d’Angie des Rolling Stones… au médiator.

la vidéo :




et la tablature correspondante :

Spoiler:



on commence avec un la mineur, et le petit doigt s’ajoute à la troisième case

E||---0----3--3--0-----------------
B||---1----1--1--1-----1-----------
G||---2----2--2--2--2--------------
D||---2----2--2--2--------2--2-----
A||--------------------------------
E||-----------------------------0--
------B----H—B--H
j’ai ajouté les battements, comme d’hab ici :
B=vers le bas et H=à remonter

pendant que vous jouer le dernier 0, vous repositionnez vos doigt pour la suite !



Que voilà, avec le 4 en mi grave joué avec le pouce (si vous pouvez !)

---------0----------0--0-----------------3----------1---1---1----------
------3----3--------3-----3-----------3----3--------1---1------1-------
---4----------4-----4--------4-----5---------5------3---2------------2-
--------------------------------5---------------5---3---3---------2----
-----------------------------------------------------------------------
-----------------4-----------------------------------------------------

--------------------B-------------------------------B---B

--------------à partir d’ici ^
on positionne les doigts de façon à glisser jusqu’ici^
avec l’index en barré sur 2 cordes et le majeur en l’air
----------------------------------puis on soulève le petit doigt^
et on descend le majeur pour faire le 2 !


ici,ce sont les battements que je fais sur la vidéo… mais à vous de voir …

-----------------------------------------------0---0--5--5--5--3----------
----------1--1---1--1--1--1----------1------1--1---1--5--5--5--3----------
----------0--0---0--0--0--0-------------0---2--2---2--------------5-------
------3---3--2---2--2--2--2-------0---------2------------------------5----
--3-------3--3------------------2-----------------------------------------
------------------------------------------------------------------------0-

----------B--B---H--H--B--H-----------------B--H---B--B--B--B--B
ici^
je garde le majeur en l’air
-------et ici^
je le place en 2 en même temps que je lève le petit doigt
---------------------------------------------------ici^
je fais un barré sur 2 cordes avec le petit doigt en cinquième case
je fais ensuite le barré en troisième case avec le majeur
et je refais un barré sur 3 cordes en troisième case avec le petit doigt


et maintenant, facile ! on rejoue la même chose qu’au début !


---------0----------0--0-----------------3----------1---1---1----------
------3----3--------3-----3-----------3----3--------1---1------1-------
---4----------4-----4--------4-----5---------5------3---2------------2-
--------------------------------5---------------5---3---3---------2----
-----------------------------------------------------------------------
-----------------4-----------------------------------------------------

--------------------B-------------------------------B---B




-----------------------------------------------
----------1--1---1--1--1--1----------1------1--
----------0--0---0--0--0--0-------------0---2--
------3---3--2---2--2--2--2-------0---------2--
--3-------3--3------------------2--------------
-----------------------------------------------

----------B--B---H--H--B--H-----------------B--



avatar
Invité
Invité


Revenir en haut Aller en bas

Voir le sujet précédent Voir le sujet suivant Revenir en haut

- Sujets similaires

 
Permission de ce forum:
Vous ne pouvez pas répondre aux sujets dans ce forum