Imagine des Beattles avec vidéo

Voir le sujet précédent Voir le sujet suivant Aller en bas

Imagine des Beattles avec vidéo

Message par Invité le Mer 9 Mai 2012 - 10:31

Imagine


Voici ma façon de jouer imagine de John Lennon

La vidéo



Et la tablature :


Spoiler:




Pour gratter les cordes : toujours vers le bas,
Un coup court, un coup long …
Ça sonne mieux avec un médiator,
Et on est plus précis pour chopper la bonne corde !
En particulier pour le petit hammer ici---------V

intro


e||--0-----0-----0-----0-----0-----0-------------0-|
B||--3-----1-----0-----1-----1-----1----------0--1-|
G||--0-----0-----0-----2-----2-----2-----2h3-----0-|
D||--2-----2-----2-----3-----3-----3-------------2-|
A||-----3-----3-----3-----3-----3-----3----------3-|
E||------------------------------------------------|


Les accords sont tous un peu trafiqués pour sonner comme la chanson …
Faite au piano !
On commence avec un do puis un fa sans barré


couplet

c’est presque la même chose que l’intro …
juste la première note (3eme case en mi aigu qui passe à 1 )
ça permet de chanter dessus !


e||--0-----0-----0-----0-----0-----0---------------0---|
B||--1-----1-----0-----1-----1-----1-----------0---1---|
G||--0-----0-----0-----2-----2-----2------2h3------0---|
D||--2-----2-----2-----3-----3-----3---------------2---| x3
A||-----3-----3-----3-----3-----3-----3------------3---|
E||----------------------------------------------------|

On fait trois fois ce morceau ^,
et la quatrième fois on joue celui ci --v
Car on tient le fa plus longtemps à la fin

e||--0-----0-----0-----0----0-----0-----0-----0----0-----0--|
B||--1-----1-----0-----1----1-----1-----1-----1----1-----1--|
G||--0-----0-----0-----2----2-----2-----2-----2----2-----2--|
D||--2-----2-----2-----3----3-----3-----3-----3----3-----3--|
A||-----3-----3-----3----------3-----------3----------3-----|
E||---------------------------------------------------------|


Pour passer en do puis en rém avec l’annulaire
en l’air pour jouer cette note -------v


-------0-------0------0------1----------------1---
-------1-------1------1------3----------------3---
-------2-------0------0------2----------------2---
-------3--0----2------2------0---0-------0----0---
----------0----3------3---------------3-----------
--------------------------|-----------------------


et on termine avec un sol suivi d’un do et d’un sol trafiqué …

--3----------3---------3-----0--------------------------
--3----------0---------0-----1-----3--------0--------0--
--0----------0---------0-----0-----0--------0--------0--
--0----------0---------0-----2-----3--------3--------3--
--2----------2---------2-----3-----2--------2--------2--
--3----3-----3----3----3-----------3----3---3----3---3--



Le refrain
Le chant démarre au deuxième fa
On enchaîne les accords fa > sol > do > do7 > mi > mi7
Pour avoir le temps de le faire (on n’est pas des bêtes !)
On joue une note à vide en transition … et ça passe !

------1-----1-----3------3-------0-----0-----0-----0---
------1-----1-----3------3-------1-----0-----0-----3---
------2-----2-----0------0-------0-----0-----1-----1---
------3-----3-----0------0-------2-----2-----2-----2---
---3-----3-----0-----2-------0------3-----0-----2--2---
----------------------(3)------------------------------

on fait ça trois fois …
pour passer de la fin au début, transition mi7>fa
vous avez le droit de jouer la première note à vide
le copier-coller étant gratuit, je mets les 3 bouts !
et hop !

------1-----1-----3------3-------0-----0-----0-----0--
------1-----1-----3------3-------1-----0-----0-----3--
------2-----2-----0------0-------0-----0-----1-----1--
------3-----3-----0------0-------2-----2-----2-----2--
---0-----3-----0-----2-------0------3-----0-----2--2--
----------------------(3)-----------------------------


------1-----1-----3------3-------0-----0-----0-----0---
------1-----1-----3------3-------1-----0-----0-----3---
------2-----2-----0------0-------0-----0-----1-----1---
------3-----3-----0------0-------2-----2-----2-----2---
---0-----3-----0-----2-------0------3-----0-----2--2---
----------------------(3)------------------------------

et pour finir …

------1-----1-----3------3-------0-------------------
------1-----1-----3------3-------1-------------------
------2-----2-----0------0-------0-------------------
------3-----3-----0------0-------2-------------------
---0-----3-----0-----2-------0---------------0---2---
----------------------(3)----------------3-----------




l'original :

http://www.dailymotion.com/swf/x4tlt8_imagine-john-lenon_music

et pour apprendre les paroles !

http://www.youtube.com/watch?v=3ri22ORVo1w&NR=1



Bon courage !
avatar
Invité
Invité


Revenir en haut Aller en bas

Voir le sujet précédent Voir le sujet suivant Revenir en haut

- Sujets similaires

 
Permission de ce forum:
Vous ne pouvez pas répondre aux sujets dans ce forum