Sweet home Alabama des Lynyrd Skynyrd avec vidéo

Aller en bas

Sweet home Alabama des Lynyrd Skynyrd avec vidéo

Message par Invité le Mar 8 Mai 2012 - 11:20

Sweet home Alabama des Lynyrd Skynyrd

Gros tube, 3 accords : ré do sol !!!

En picking, voici la tablature :

Main droite, le pouce s’occupe des 3 basses mi la ré …
L’index s’occupe de la corde sol
Et le majeur de la corde si …


Spoiler:



-------------------------------------------
-----------3-------------0-------------0---
--------------2-------------0----------0---
----0--0-----------------------------------
-------------------3--3--------------------
---------------------------------3--3------


---------------------------------------
---------------------------------------
---------------------------------------
-----------0---2p0-------0-------------
----0h2--------------2-----------------
---------------------------------------




En strumming ou grattage médiator ou doigts :


------------------------------------------------
-----------3--x-----------0--x--------------0---
-----------2--x-----------0--x--------------0---
----0--0------x--------------x------------------
--------------------3--3-----x------------------
--------------------------------------3--3------


---------------------------------
---------------------------------
---------------------------------
-----------0---2p0-------0-------
----0h2--------------2-----------
---------------------------------


l’autre pont :

--------------------------------------------
--------------------------------------------
----0----2p0---0---4p0---0---5slide7--------
--------------------------------------------
--------------------------------------------
--------------------------------------------

en accords barrés

-------------10-------------8-------------3--------
-------------10-------------8-------------3----x---
-------------11-------------9-------------4----x---
-------------12------------10-------------5----x---
-------------12------------10-------------5----x---
-10--10--10-------8--8--8--------3--3--3-------x---





la vidéo :



L’original :
https://www.youtube.com/watch?v=r8rnFKo4PAE

les paroles :
http://www.lyrics007.com/Lynyrd%20Skynyrd%20Lyrics/Sweet%20Home%20Alabama%20Lyrics.html


à jouer seul ou à 2 !!^^

à plus ...
avatar
Invité
Invité


Revenir en haut Aller en bas

Re: Sweet home Alabama des Lynyrd Skynyrd avec vidéo

Message par ludane le Dim 10 Juin 2012 - 10:48

hello Pef
merci celle la ca y est je la tiens grâce a toi
je ne m étais jamais penché sur le pont (de peur de tomber lol )ca y est et c est trop bon
bon dimanche
lulu

_Signature________♪♫
sans prétentions et sans complexes ...
avatar
ludane
Je suis super actif
Je suis super actif

Messages : 276
Date d'inscription : 23/05/2012
Age : 45
Localisation : Albert dans la somme

https://www.youtube.com/user/ludane80

Revenir en haut Aller en bas

Re: Sweet home Alabama des Lynyrd Skynyrd avec vidéo

Message par Invité le Dim 10 Juin 2012 - 13:58

ce qui est cool en plus,

c'est que sonne autant en acoustique qu'en électrique !!

quand c'est bon,

c'est bon tout le temps !!^^
avatar
Invité
Invité


Revenir en haut Aller en bas

Re: Sweet home Alabama des Lynyrd Skynyrd avec vidéo

Message par Contenu sponsorisé


Contenu sponsorisé


Revenir en haut Aller en bas

Revenir en haut

- Sujets similaires

 
Permission de ce forum:
Vous ne pouvez pas répondre aux sujets dans ce forum