The Needle and the damage done de Neil Young avec vidéo

Aller en bas

The Needle and the damage done de Neil Young avec vidéo

Message par Invité le Mar 8 Mai 2012 - 10:31

The Needle and the damage done



Un morceau de flat picking avec ce super titre de Neil Young …

Et beaucoup de sauts de cordes … C’est la difficulté de ce morceau …

Ya du boulot, mais c’est vraiment une chouette chanson …



Voici la tablature de ce que je joue :

Spoiler:




E|-----2-------0-------------------|-------------0---------------0---|-------------0---------------0---|
B|---------------------3-------3---|-----3---------------3-----------|-----3---------------3-----------|
G|---------------------------------|---------------------------------|---------------------------------|
D|-0-------0-------0-------0-------|---------------------------------|---------------------------------|
A|---------------------------------|-3-------3-------3-------3-------|-2-------2-------2-------2-------|
E|---------------------------------|---------------------------------|---------------------------------|


E|-------------0-------------------|---------------0-------0---------0---|-----0-------0-------0-------0---|
B|-----3---------------3-------0---|-----1-------------------------------|---------------------------------|
G|---------------------------------|-------------------0-------0--2------|-3-------2-------0---------------|
D|---------------------------------|---------0--2------------------------|-------------------------3-------|
A|-1-------1-------1-------1-------|-3-----------------------------------|---------------------------------|
E|---------------------------------|-------------------------------------|---------------------------------|


E|-----0---------------------------|---------------------------------|
B|-------------0-------0-------0---|-----0-------0-------0-------0---|
G|-2-------------------------------|-1-------------------------------|
D|---------2-----------------------|---------2-----------------------|
A|-----------------2---------------|-----------------2-------0-------|
E|-------------------------0-------|---------------------------------|


E|-----2-------0-------------------|-------------0---------------0---|-------------0---------------0---|
B|---------------------3-------3---|-----3---------------3-----------|-----3---------------3-----------|
G|---------------------------------|---------------------------------|---------------------------------|
D|-0-------0-------0-------0-------|---------------------------------|---------------------------------|
A|---------------------------------|-3-------3-------3-------3-------|-2-------2-------2-------2-------|
E|---------------------------------|---------------------------------|---------------------------------|


E|-------------0-------------------|---------------0-------0---------0---|-----0-------0-------0-------0---|
B|-----3---------------3-------0---|-----1-------------------------------|---------------------------------|
G|---------------------------------|-------------------0-------0--2------|-3-------2-------0---------------|
D|---------------------------------|---------0--2------------------------|-------------------------3-------|
A|-1-------1-------1-------1-------|-3-----------------------------------|---------------------------------|
E|---------------------------------|-------------------------------------|---------------------------------|


E|-A-------A---V-------V---A---|-A-------A---V------V---A------|
B|-0-------0---0-------0---0---|-0--------0---0------0---0-----|
G|-2-------2---2-------2---2---|-1--------1---1------1---1-----|
D|-2-------2---2-------2---2---|-2--------2---2------2---2-----|
A|-2-------2---2-------2---2---|-2--------2---2------2---2-----|
E|-----------------------------|-------------------------------|


E|-------------------------------------|
B|-----0---------0---------0-------0---|
G|-------------------------------------|
D|-------------------2--4------2-------|
A|-2-------0--2------------------------|
E|-------------------------------------|



Voici la vidéo tempo ralenti :




Un lien pour avoir la tab complète :
http://www.guitariff.net/tabs/neil_young/the_needle_and_the_damage_done_guitar-pro/#top

l’original :
https://www.youtube.com/watch?v=k0t0EW6z8a0

à+
avatar
Invité
Invité


Revenir en haut Aller en bas

Revenir en haut

- Sujets similaires

 
Permission de ce forum:
Vous ne pouvez pas répondre aux sujets dans ce forum