Thickfreakness des Black Keys vidéo

Voir le sujet précédent Voir le sujet suivant Aller en bas

Thickfreakness des Black Keys vidéo

Message par Invité le Mar 8 Mai 2012 - 10:09

Thickfreakness des Black Keys ...

un petit blues pour changer !

Perso, j’aime mieux ce titre à l’acoustique,

mais ça passe bien avec une électrique un peu « sale » (un peu saturée quoi !) …


La tablature de ce que je joue :

Spoiler:



E|------------------------------------------|----------------------------------------|
B|------------------------------------------|----------------------------------------|
G|------------------------------------------|----------------------------------------|
D|-7--5-------------------------------------|-7--5-----------------------------------|
A|-------7-6-5---3--5---5p3-----------------|-------7-6-5--3--5--3h5--3h5--5p3-------|
E|---------------------------5p3--5--0---3--|-----------------------------------5p3--|


E|------------------------------------------|--------------------------|
B|------------------------------------------|--------------------------|
G|------------------------------------------|----------------------0---|
D|-7--5-------------------------------------|-7--5-----------------5---|
A|-------7-6-5---3--5---5p3-----------------|-------7-6-5--3--5--5s7---|
E|---------------------------5p3--5--0---3--|--------------------------|



E|-------------------------------------------|---------------------------------------|
B|-------------------------------------------|---------------------------------------|
G|-------------------------------------------|---------------------------------------|
D|----7--------7--------7-----7--------------|----7------7------7------7--5----------|
A|----0--------0--------0-----0--------------|----0------0------0------------7--5----|
E|-5--------5--------5-----------0---3---4---|-5------5------5---------------------8-|


E|-------------------------------------------|---------------------------|
B|-------------------------------------------|---------------------------|
G|-------------------------------------------|-------------------------5-|
D|----7--------7--------7-----7--------------|----7------7------7---7----|
A|----0--------0--------0-----0--------------|----0------0------0--------|
E|-5--------5--------5-----------0---3---4---|-5------5------5-----------|


E|--------------------------|------------------------|
B|--------------------------|----------8--5----------|
G|-7--5--------5------------|-------5--------7--5----|
D|-------5--7-----7---5---5-|-7--7-----------------7-|
A|--------------------------|------------------------|
E|--------------------------|------------------------|



je n'ai pas joué la totalité du morceau,

mais ya moyen de se débrouiller avec ça !^^



Voici un lien pour la tablature tux ou guitarpro :

http://www.guitariff.net/tabs/black_keys/thickfreakness_guitar-pro/#top


la vidéo au ralenti qui va avec :




et l’original :

http://www.youtube.com/watch?v=3X_lOZI9KWI



à +
avatar
Invité
Invité


Revenir en haut Aller en bas

Voir le sujet précédent Voir le sujet suivant Revenir en haut

- Sujets similaires

 
Permission de ce forum:
Vous ne pouvez pas répondre aux sujets dans ce forum