riff facile exo politic de Muse vidéo

Voir le sujet précédent Voir le sujet suivant Aller en bas

riff facile exo politic de Muse vidéo

Message par Invité le Mar 8 Mai 2012 - 10:05

Un petit muse pour changer : Exo politics …

La tablature de ce que je joue :

Spoiler:



D’abord plusieurs fois ça :


E|----------------|---------------------------|-------------------|
B|----------------|---------------------------|-------------------|
G|---x--x--x------|---------------------------|-------------------|
D|---x--x--x------|---------------------------|------------/\-----|
A|---x--x--x------|-5----5----5-------5---7---|-8----8----7/\-----|
E|----------------|---------------8-----------|-----------------8-|


Puis à suivre ça :

E|-----------------------|-----------------------|
B|-----------------------|-----------------------|
G|-----------------------|-----------------------|
D|-----------------------|-----------------------|
A|-----------------------|-----------------------|
E|-6---6---6---5---6---8-|-1---1---1---0---1---3-|


E|-----------------------|-------------------|-------------------------|
B|-----------------------|-------------------|-------------------------|
G|-----------------------|-------------------|-------------------------|
D|-----------------------|-------------------|-------------------------|
A|---------------------3-|-5---5---3h5p3---3-|-------------------------|
E|-5---5---5---3---5-----|-------------------|-6---6---6---5---6---8---|



E|-----------------------|------------------------|---------------------------|
B|-----------------------|------------------------|---------------------------|
G|-----------------------|------------------------|---------------------------|
D|-----------------------|------------------------|---------------------------|
A|-----------------------|----------------------3-|-------------------------3-|
E|-1---1---1---0---1---3-|-5---5----5---3---5-----|-5---5---6---5---3---5-----|

Et on reprend le premier morceau …





Voici un lien pour la tablature tux ou guitarpro :

http://www.guitariff.net/tabs/muse/exo-polotics_guitar-pro/#top



la vidéo au ralenti qui va avec :




et l’original :

http://www.youtube.com/watch?v=1pdtnDW7ca8


en super bonus, le back track :
http://www.guitarbackingtrack.com/play/muse/exo-politics.htm

à +
avatar
Invité
Invité


Revenir en haut Aller en bas

Voir le sujet précédent Voir le sujet suivant Revenir en haut

- Sujets similaires

 
Permission de ce forum:
Vous ne pouvez pas répondre aux sujets dans ce forum