riff facile Black dog de led zeppelin vidéo

Aller en bas

riff facile Black dog de led zeppelin vidéo

Message par Invité le Mar 8 Mai 2012 - 9:17

Black dog de ledzep

Et un petit Led Zep pour changer : Black Dog

La tablature de ce que je joue :

Spoiler:



E|------------------------------|----------------------------------|
B|------------------------------|----------------------------------|
G|-------------------------5----|------7---9---5---7---5-----------|
D|---------5---6---7------------|-7------------------------7---7---|
A|-----7---------------7--------|----------------------------------|
E|------------------------------|----------------------------------|


E|---------------------------|------------------------|--------|---|
B|---------------------------|------------------------|--------|---|
G|-5-------------------------|------------------------|--------|---|
D|------7----5---7---7-------|-------------2-----2----|-2------|-2-|
A|-----------------------5---|-7---3---5---0-----0----|-0------|-0-|
E|---------------------------|------------------------|--------|---|



E|---------------|---------------------------|---------------------|
B|---------------|---------------------------|---------------------|
G|---------------|---------------------------|---------------------|
D|---------------|---------5-----------------|-------------5-------|
A|-------5---6---|-7------------7--------5---|-6---7------------7--|
E|---7-----------|-----7-------------7-------|---------7-----------|



Voici un lien pour la tablature tux ou guitarpro :

http://www.guitariff.net/tabs/led_zeppelin/black_dog_guitar-pro/#top



la vidéo au ralenti qui va avec :





et l’original :

https://www.youtube.com/watch?v=6tlSx0jkuLM&ob=av2n



et en super bonus, les back tracks ...

ici
http://www.guitarbackingtrack.com/play/led_zeppelin/black_dog_%282%29.htm

ou la ...
http://www.guitarbackingtrack.com/play/led_zeppelin/black_dog_%28the_song_remains_the_same%29.htm

à +
avatar
Invité
Invité


Revenir en haut Aller en bas

Revenir en haut

- Sujets similaires

 
Permission de ce forum:
Vous ne pouvez pas répondre aux sujets dans ce forum