Riff facile Soldier de Calvin Russel vidéo

Voir le sujet précédent Voir le sujet suivant Aller en bas

Riff facile Soldier de Calvin Russel vidéo

Message par Invité le Sam 5 Mai 2012 - 13:38

et voici ma version de Soldier de Calvin Russel !!


la tablature de ce que je joue :

Spoiler:






E|-0----0----0----0---0---|-0----0----0----1-------|
B|-1----0----1----0---0---|-1----0----1----1-------|
G|-2----2----2----2---2---|-2----2----2----2-------|
D|-2----2----2----2---2---|-2----2----2----3-------|
A|------------------------|------------------------|
E|------------------------|------------------------|



E|-1----0----1----0---0---|-1----1----1----3----|
B|-1----0----1----0---0---|-1----3----1----0----|
G|-2----2----2----2---2---|-2----2----2----0----|
D|-3----3----3----3---3---|-3----3----3----0----|
A|------------------------|---------------------|
E|------------------------|---------------------|





E|-3---3---3-----------------------|
B|-0---0---0-------1---3---3---1---|
G|-0---0---0-----------------------|
D|-0---0---0-----------------------|
A|---------------------------------|
E|---------------------------------|




E|-----------------0----0----|-0----0----0----0----|
B|-0---1---0-------1----1----|-1----1----0----1----|
G|-------------2---2----2----|-2----2----2----2----|
D|-----------------2----2----|-2----2----2----2----|
A|---------------------------|---------------------|
E|---------------------------|---------------------|





la vidéo en ralenti qui va avec :




l'original :
http://www.youtube.com/watch?v=G_icmXJMRnk

à+


Dernière édition par pef le Mar 8 Mai 2012 - 9:23, édité 4 fois
avatar
Invité
Invité


Revenir en haut Aller en bas

Re: Riff facile Soldier de Calvin Russel vidéo

Message par Riffraff le Dim 6 Mai 2012 - 18:27

Merci ^^(même si la partoche est mal mise)
avatar
Riffraff
Admin
Admin

Messages : 824
Date d'inscription : 07/12/2011

http://forumdesguitaristes.forumsmusic.com

Revenir en haut Aller en bas

Re: Riff facile Soldier de Calvin Russel vidéo

Message par Invité le Dim 6 Mai 2012 - 18:48



Haaa????

qu'est qui te plait pas dans cette tablature ??

la mise en page ?? Shocked
avatar
Invité
Invité


Revenir en haut Aller en bas

Re: Riff facile Soldier de Calvin Russel vidéo

Message par Riffraff le Dim 6 Mai 2012 - 19:30

non ,juste que les lignes de la partition sont mal mises... Ce n'est pas si grave^^
avatar
Riffraff
Admin
Admin

Messages : 824
Date d'inscription : 07/12/2011

http://forumdesguitaristes.forumsmusic.com

Revenir en haut Aller en bas

Re: Riff facile Soldier de Calvin Russel vidéo

Message par Invité le Dim 6 Mai 2012 - 22:07


c'est remis en forme ...^^
avatar
Invité
Invité


Revenir en haut Aller en bas

Re: Riff facile Soldier de Calvin Russel vidéo

Message par Riffraff le Lun 7 Mai 2012 - 5:38

C'est mieux ^^,merci pour tout ces efforts! Very Happy
avatar
Riffraff
Admin
Admin

Messages : 824
Date d'inscription : 07/12/2011

http://forumdesguitaristes.forumsmusic.com

Revenir en haut Aller en bas

Re: Riff facile Soldier de Calvin Russel vidéo

Message par Invité le Mar 8 Mai 2012 - 9:23


Ajout vidéo ...
avatar
Invité
Invité


Revenir en haut Aller en bas

Re: Riff facile Soldier de Calvin Russel vidéo

Message par Contenu sponsorisé


Contenu sponsorisé


Revenir en haut Aller en bas

Voir le sujet précédent Voir le sujet suivant Revenir en haut

- Sujets similaires

 
Permission de ce forum:
Vous ne pouvez pas répondre aux sujets dans ce forum