Riff facile Tell me why de Neil Young vidéo

Aller en bas

Riff facile Tell me why de Neil Young vidéo

Message par Invité le Sam 5 Mai 2012 - 13:32

Voici l’intro de la chanson « tell me why » de Neil Young

Ici la
partoche complète de cette chanson en tux :
http://www.guitariff.net/tabs/neil_young/tell_me_why_guitar-pro/#top

voici
la tablature de ce que je joue :


Spoiler:




E|---------------------|-----0---------------------------------|-----2-------2-------------------|
B|---------------------|-----1---------------------1-----------|-----3-------3-------------------|
G|---------------------|-----0--0--------0---0--2------0-------|-----2-------2-------------------|
D|---------------------|-----------0--2--------------------2---|-0---------------0---0-----------|
A|-------------0---2---|-3-------------------------------------|---------0---------------3---2---|
E|---------3-----------|---------------------------------------|---------------------------------|


E|-----0-----------------0-------------|-----3-----------------------3----|
B|-----1-----------------1-------------|-----0-----------------------3----|
G|-----0---------0-------0-------------|-----0---------------0-------0----|
D|---------0--2------0-------------0---|---------------0--2----------0----|
A|-0-------------------------0--2------|---------0--2----------------2----|
E|-------------------------------------|-3-----------------------3---3----|




une vidéo à tempo ralenti pour aller avec …



L’original :
https://www.youtube.com/watch?v=ynlW5_rnRVE

A plus


Dernière édition par pef le Mar 8 Mai 2012 - 9:27, édité 2 fois
avatar
Invité
Invité


Revenir en haut Aller en bas

Re: Riff facile Tell me why de Neil Young vidéo

Message par Riffraff le Dim 6 Mai 2012 - 18:21

Merci du partage Very Happy Rolling Eyes
avatar
Riffraff
Admin
Admin

Messages : 826
Date d'inscription : 07/12/2011

http://forumdesguitaristes.forumsmusic.com

Revenir en haut Aller en bas

Re: Riff facile Tell me why de Neil Young vidéo

Message par Invité le Mar 8 Mai 2012 - 9:27


Ajout vidéo ...

avatar
Invité
Invité


Revenir en haut Aller en bas

Re: Riff facile Tell me why de Neil Young vidéo

Message par Contenu sponsorisé


Contenu sponsorisé


Revenir en haut Aller en bas

Revenir en haut

- Sujets similaires

 
Permission de ce forum:
Vous ne pouvez pas répondre aux sujets dans ce forum