Riff facile Hey hey my my de Neil Young vidéo

Aller en bas

Riff facile Hey hey my my de Neil Young vidéo

Message par Invité le Sam 5 Mai 2012 - 13:23

Neil Young avec Hey Hey My My !

Qui se joue à l’acoustique ou à l’électrique …


Voici des liens pour avoir la partoche entière
en tux ou guitarpro :

http://www.guitariff.net/tabs/neil_young/hey_hey%2C_my_my_%28acoustic%29_guitar-pro/#top

http://www.guitariff.net/tabs/neil_young/hey_hey%2C_my_my_guitar-pro/#top


à lire avec tuxguitare, logiciel gratuit téléchargeable ici:
http://www.01net.com/telecharger/windows/Loisirs/musique/fiches/34918.html


et voici la partoche de ce que je joue :

Spoiler:





E|------------------------------|-----3---3--------------------|---------------------------|
B|---------1--------------------|-----3---0--------------------|-----1--------1----1---1---|
G|---------0--------------------|-0---0------------------------|-----2--------2----2---2---|
D|---------2----------------0---|-0----------------------------|-----3--------3----3---3---|
A|-----0--------0---2---3-------|--------------2---0-------0---|-0-------------------------|
E|-0----------------------------|----------------------3-------|---------------------------|


E|-0-------------------------|------------------------------|---------3-------------------------|
B|-----1----1---1-------1----|------1-----------------------|---------0-------------------------|
G|-----2----2---2-------2----|------0-----------------------|-----0-----------------------------|
D|-----3----3---3-------3----|------2-------------------0---|-0---0-------0---0--2--0-------0---|
A|---------------------------|-0------------0---2---3-------|---------------------------3-------|
E|---------------------------|------------------------------|-----------------------------------|


E|---------------------------|-0-------------------------|
B|-----1--------1----1---1---|-----1----1---1-------1----|
G|-----2--------2----2---2---|-----2----2---2-------2----|
D|-----3--------3----3---3---|-----3----3---3-------3----|
A|-0-------------------------|---------------------------|
E|---------------------------|---------------------------|






une video à un tempo plus lent pour aller avec …




l'original :
http://www.youtube.com/watch?v=cMs3PCDM8Eg


Dernière édition par pef le Mar 8 Mai 2012 - 9:30, édité 1 fois
avatar
Invité
Invité


Revenir en haut Aller en bas

Re: Riff facile Hey hey my my de Neil Young vidéo

Message par Riffraff le Dim 6 Mai 2012 - 17:51

Merci^^ du partage...
avatar
Riffraff
Admin
Admin

Messages : 824
Date d'inscription : 07/12/2011

http://forumdesguitaristes.forumsmusic.com

Revenir en haut Aller en bas

Re: Riff facile Hey hey my my de Neil Young vidéo

Message par Invité le Mar 8 Mai 2012 - 9:31


Ajout vidéo ...
avatar
Invité
Invité


Revenir en haut Aller en bas

Re: Riff facile Hey hey my my de Neil Young vidéo

Message par Contenu sponsorisé


Contenu sponsorisé


Revenir en haut Aller en bas

Revenir en haut

- Sujets similaires

 
Permission de ce forum:
Vous ne pouvez pas répondre aux sujets dans ce forum