everybody hurts de REM ou coors vidéo

Voir le sujet précédent Voir le sujet suivant Aller en bas

everybody hurts de REM ou coors vidéo

Message par Invité le Ven 4 Mai 2012 - 17:01

Ce coup ci, encore une très jolie chanson « facile » … car très lente,

Avec des paroles magnifiques …


Everybody hurts de REM et reprise par les Corrs …


Je la joue en picking, ça me parait plus simple ,
Main droite, le pouce fait la basse, et les 3 autres doigts font l’arpège.

La difficulté,
c’est d’arriver à déplacer toute la main droite
pour faire l’arpège au bon endroit …

mais c’est aussi possible de la jouer au médiator comme dans la vidéo …
c’est sans doute plus dur à cause des sauts de cordes …


accordage standard, et capot à la troisième case si on veut sonner comme la vidéo …

ma vidéo :



La tablature :

Spoiler:



Intro (x2)

C’est un ré puis un sol, je laisse mon annulaire sur la touche comme pivot …

---------0-2-----------------2--------------------------------------------
------3------3------------3-----3---------------3-----------------3-------
---2------------2------2-----------2---------0-----0-----------0-----0----
0-------------------0---------------------0-----------0-----0-----------0-
--------------------------------------------------------------------------
---------------------------------------3-----------------3----------------
P>>i>>m>>a>>m>>>i>>>p>>i>>m>>a>>m>>i>>>p>>i>>m>>a>>m>>i>>p>>i>>m>>a>>m>>i

p= pouce, i= index, m= majeur et a= annulaire …


couplet

idem pour cette ligne là !

---------0-2-----------------2--------------------------------------------
------3------3------------3-----3---------------3-----------------3-------
---2------------2------2-----------2---------0-----0-----------0-----0----
0-------------------0---------------------0-----------0-----0-----------0-
--------------------------------------------------------------------------
---------------------------------------3-----------------3----------------
P>>i>>m>>a>>m>>>i>>>p>>i>>m>>a>>m>>i>>>p>>i>>m>>a>>m>>i>>p>>i>>m>>a>>m>>i

encore un ré (différent) et un sol

-------------------------------------------------------------------------
---------3-------------------3-----------------3-------------------------
------2-----2-------------2-----2-----------0-----0----------------------
---0-----------0------0------------0-----0-----------0--------0--------0-
-----------------------------------------------------------2--------0----
2-----------------2-------------------3-----------------3--------2-------


on continue avec un mim7 puis un la7,
ce coup ci c’est le majeur qui reste en place pour le placement rapide …


-----------------------------------------------------------------------
---------3-----------------3-----------------2-----------------2-------
------0-----0-----------0-----0-----------0-----0-----------0-----0----
---2-----------2-----2-----------2-----2-----------2-----2-----------2-
------------------2-----------------0-----------------0----------------
0----------------------------------------------------------------------


-------------------------------------------------------------------------
---------3-----------------3-----------------2---------------------------
------0-----0-----------0-----0-----------0-----0------------------------
---2-----------2-----2-----------2-----2-----------2---------------------
------------------2-----------------0-----------------0------------------
0------------------------------------------------------------------------


si on veut tout jouer, il y a aussi un espèce de pont …avec des barrés ! ça hausse le niveau …

BRIDGE: (Rythm guitar)
F# Bm F# Bm F# Bm
Don't blow your hand... Oooh no.... Don't blow your hand...
C G C Am
when you feel like you're alone No, no, no you're not alone

F# et Bm
-2----2-
-2----3-
-3----4-
-4----4-
-4----2-
-2----2-





La vidéo des corrs :
http://www.youtube.com/watch?v=8r_ubcUd-gE&feature=related


à+


Dernière édition par pef le Mar 8 Mai 2012 - 9:49, édité 1 fois
avatar
Invité
Invité


Revenir en haut Aller en bas

Re: everybody hurts de REM ou coors vidéo

Message par Riffraff le Ven 4 Mai 2012 - 17:32

Merci du partage^^ Tres belle chanson^^
avatar
Riffraff
Admin
Admin

Messages : 824
Date d'inscription : 07/12/2011

http://forumdesguitaristes.forumsmusic.com

Revenir en haut Aller en bas

Re: everybody hurts de REM ou coors vidéo

Message par Invité le Mar 8 Mai 2012 - 9:50


Ajout vidéo ...
avatar
Invité
Invité


Revenir en haut Aller en bas

Re: everybody hurts de REM ou coors vidéo

Message par ludane le Jeu 31 Mai 2012 - 20:34

hello excellent comme tuto j aime beaucoup
merci
lulu

_Signature________♪♫
sans prétentions et sans complexes ...
avatar
ludane
Je suis super actif
Je suis super actif

Messages : 276
Date d'inscription : 23/05/2012
Age : 45
Localisation : Albert dans la somme

http://www.youtube.com/user/ludane80

Revenir en haut Aller en bas

Re: everybody hurts de REM ou coors vidéo

Message par Contenu sponsorisé


Contenu sponsorisé


Revenir en haut Aller en bas

Voir le sujet précédent Voir le sujet suivant Revenir en haut

- Sujets similaires

 
Permission de ce forum:
Vous ne pouvez pas répondre aux sujets dans ce forum