riff facile Stevie Ray Vaughan life by the drop vidéo

Aller en bas

riff facile Stevie Ray Vaughan life by the drop vidéo

Message par Invité le Ven 4 Mai 2012 - 13:24

Stevie Ray
Vaughan life by the drop

Allez un petit coup de blues !

Avec une intro magnifique qui se joue d’origine à la douze cordes …

Mais ça passe très bien en 6 aussi … acoustique ou électrique …


La partoche :
Spoiler:




E|-------------------------------------------------|
B|-------------------------------------------------|
G|---------------------0-------------------------2-|
D|---------0---1---2-------0---1--0------0---------|
A|-0---3-----------------------------3-------3-----|
E|-------------------------------------------------|


E|-------------------------------------------------|
B|-------------------------------------------------|
G|-0---------------------------------------------2-|
D|-----2---1---0---1--0------0-------0-------------|
A|-----------------------3-------3-------3---0-----|
E|-------------------------------------------------|


E|-------------------------------------|
B|-------------------------------------|
G|---------------------------------2---|
D|-2---2---4---4---2---2---------------|
A|-0---0---0---0---0---0---3---0-------|
E|-------------------------------------|





La partoche complète en tux ou guitarpro :
http://www.guitariff.net/tabs/stevie_ray_vaughan/life_by_the_drop_guitar-pro/#top

la vidéo au ralenti qui va avec :




L’original :
https://www.youtube.com/watch?v=B7SS0yezCU4


à+


Dernière édition par pef le Mar 8 Mai 2012 - 9:43, édité 2 fois
avatar
Invité
Invité


Revenir en haut Aller en bas

Re: riff facile Stevie Ray Vaughan life by the drop vidéo

Message par Riffraff le Ven 4 Mai 2012 - 15:16

Merci du partage^^ Et pense a mettre la tablature en "spoiler" stp ,merci ca prend moins de place^^
avatar
Riffraff
Admin
Admin

Messages : 826
Date d'inscription : 07/12/2011

http://forumdesguitaristes.forumsmusic.com

Revenir en haut Aller en bas

Re: riff facile Stevie Ray Vaughan life by the drop vidéo

Message par Invité le Ven 4 Mai 2012 - 16:31


ha ben oui tiens ... j'y pense jamais !!^^

bon, j'ai vu comment faire et c'est fait ici ...

je vais faire le tour de mes sujets pour rentrer dans le moule ! study drunken
avatar
Invité
Invité


Revenir en haut Aller en bas

Re: riff facile Stevie Ray Vaughan life by the drop vidéo

Message par Riffraff le Ven 4 Mai 2012 - 16:35

Merci^^ Ce n'ai pas grave si tu ne le mets pas sur des petites tablatures .....mais pense y.... Very Happy
avatar
Riffraff
Admin
Admin

Messages : 826
Date d'inscription : 07/12/2011

http://forumdesguitaristes.forumsmusic.com

Revenir en haut Aller en bas

Re: riff facile Stevie Ray Vaughan life by the drop vidéo

Message par Invité le Mar 8 Mai 2012 - 9:44


Ajout vidéo ...
avatar
Invité
Invité


Revenir en haut Aller en bas

Re: riff facile Stevie Ray Vaughan life by the drop vidéo

Message par Contenu sponsorisé


Contenu sponsorisé


Revenir en haut Aller en bas

Revenir en haut

- Sujets similaires

 
Permission de ce forum:
Vous ne pouvez pas répondre aux sujets dans ce forum