Ridan ulysse vidéo

Voir le sujet précédent Voir le sujet suivant Aller en bas

Ridan ulysse vidéo

Message par Invité le Jeu 3 Mai 2012 - 20:56

Ridan ulysse


Houla ! 4 barrés pour cette belle chanson !

Spoiler:



e-----5------3-----6-----5-------------
B-----6------3-----6-----5-------------
G-----7------3-----7-----6-------------
D-----7------5-----8-----7-------------
A-----5------5-----8-----7-------------
E-----5------3-----6-----5-------------


A utiliser comme ceci,
alternance de basse et de 3 cordes jouées en même temps
avec index, majeur et annulaire !


e-----------------------------------------------------------------------------
B-----6------6---------3--------3---------6----------6---------5----------5---
G-----7------7---------3--------3---------7----------7---------6----------6---
D-----7------7---------5--------5---------8----------8---------7----------7---
A--5------------------------5--------------------8--------------------7-------
E---------5--------3-------------------6--------------------5-----------------

Et ça tourne en boucle…



Si tu as un pote avec toi et une deuxième guitare,
Il peut ajouter par moment un petit riff sur la corde de mi aigu
Du genre :
11-13-11-13-11-13-10-12-11 ….
Ou
11-13-13-11-13--11-13-10-12-11 …. A vérifier !! ou à ré-inventer !!


la vidéo qui va avec :




l'original :




à plus


Dernière édition par pef le Mar 8 Mai 2012 - 9:55, édité 2 fois
avatar
Invité
Invité


Revenir en haut Aller en bas

Re: Ridan ulysse vidéo

Message par Riffraff le Ven 4 Mai 2012 - 5:21

Merci de ce petit partage^^
avatar
Riffraff
Admin
Admin

Messages : 824
Date d'inscription : 07/12/2011

http://forumdesguitaristes.forumsmusic.com

Revenir en haut Aller en bas

Re: Ridan ulysse vidéo

Message par Invité le Mar 8 Mai 2012 - 9:56


Ajout vidéo ...
avatar
Invité
Invité


Revenir en haut Aller en bas

Re: Ridan ulysse vidéo

Message par Contenu sponsorisé


Contenu sponsorisé


Revenir en haut Aller en bas

Voir le sujet précédent Voir le sujet suivant Revenir en haut

- Sujets similaires

 
Permission de ce forum:
Vous ne pouvez pas répondre aux sujets dans ce forum