riff facile creedence clearwater revival

Voir le sujet précédent Voir le sujet suivant Aller en bas

riff facile creedence clearwater revival

Message par Invité le Mer 2 Mai 2012 - 16:26

un riff en intro du groupe Creedence clearwater revival …

Down on the corner 1969


http://www.youtube.com/watch?v=nJAjOlp4Tas



moi je la joue comme ça ...

Spoiler:



|---------------------------------------------------------------------------------------|
|---------------------------------------------------------------------------------------|
|---------------------------------------------------------------------------------0--0--|
|--------------------------------------------3--0-------3--3--0-----------2-------------|
|---3--0------3--3--0---------2---3--3-----------3--------------3--3--------------------|
|----------3-------------3--3-----------------------------------------------------------|


|------------------------------------------|
|------------------------------------------|
|------------------------------------------|
|------------------------------------------|
|---3--0------3--3--0---------2---3--3-----|
|----------3-------------3--3--------------|




avatar
Invité
Invité


Revenir en haut Aller en bas

Re: riff facile creedence clearwater revival

Message par Invité le Lun 28 Mai 2012 - 9:10

modif lien
avatar
Invité
Invité


Revenir en haut Aller en bas

Voir le sujet précédent Voir le sujet suivant Revenir en haut

- Sujets similaires

 
Permission de ce forum:
Vous ne pouvez pas répondre aux sujets dans ce forum