riff facile ode to my family des Cranberries

Aller en bas

riff facile ode to my family des Cranberries

Message par Invité le Mer 2 Mai 2012 - 14:57

Je la joue simplement comme ça :

Spoiler:


|-----------------------------------------------------------|
|--1-----1-----1------1-----1-----1-----0-----0-----0-------|
|----0-----0-----0------2-----2-----2-----0-----0-----0-----|
|------2-----2-----0------2-----2-----0-----2-----2-----0---|
|-----------------------------------------------------------|
|-----------------------------------------------------------|


|----------------------------------------------------------|
|--1-------------------------------------------------------|
|----0-----0h2p0---0h2p0-----------------------------------|
|------3---------------------------------------------------|
|----------------------------------------------------------|
|----------------------------------------------------------|


à jouer au choix, au médiator

ou en attribuant un doigt par corde
du genre index en ré, majeur en sol et annulaire pour si ...

bon courage !


Dernière édition par pef le Ven 4 Mai 2012 - 16:37, édité 1 fois
avatar
Invité
Invité


Revenir en haut Aller en bas

Re: riff facile ode to my family des Cranberries

Message par Riffraff le Jeu 3 Mai 2012 - 16:56

Merci pour ce petit riff Very Happy
avatar
Riffraff
Admin
Admin

Messages : 824
Date d'inscription : 07/12/2011

http://forumdesguitaristes.forumsmusic.com

Revenir en haut Aller en bas

Revenir en haut

- Sujets similaires

 
Permission de ce forum:
Vous ne pouvez pas répondre aux sujets dans ce forum