riff facile Day tripper des Beattles

Voir le sujet précédent Voir le sujet suivant Aller en bas

riff facile Day tripper des Beattles

Message par Invité le Mer 2 Mai 2012 - 14:37

la vidéo :

http://www.youtube.com/watch?v=XwmtNk_Yb2Q


et moi je la joue comme ça ...

je vous la donne en entier … ( je suis trop gentil ! … )

Spoiler:




|----------------------------------------------------|
|----------------------------------------------------|
|----------------------------------------------------|
|-------------------2--0--------4---------0---2------|
|---------------2-----------2---------2--------------|
|---0--3--4------------------------------------------|


|---------------------------------------------------|
|---------------------------------------------------|
|-------------------2--0--------4---------0---2-----|
|---------------2-----------2---------2-------------|
|---0--3--4-----------------------------------------|
|---------------------------------------------------|


|---------------------------------------------------|
|---------------------------------------------------|
|---------------------------------------------------|
|-------------------2--0--------4---------0---2-----|
|---------------2-----------2---------2-------------|
|---0--3--4-----------------------------------------|


puis en accord
la suite se complique car il faut faire des barrés

Eadgbe

244222

044222

244222

577555

466444

446644

224422

et ça recommence … !



Dernière édition par pefmo le Sam 26 Mai 2012 - 22:14, édité 2 fois
avatar
Invité
Invité


Revenir en haut Aller en bas

Re: riff facile Day tripper des Beattles

Message par Riffraff le Jeu 3 Mai 2012 - 16:41

Merci^^
C'est un Riff facile pour bien commencer le rock Wink :p
Smile


Dernière édition par Riffraff le Mer 1 Aoû 2012 - 15:36, édité 1 fois
avatar
Riffraff
Admin
Admin

Messages : 824
Date d'inscription : 07/12/2011

http://forumdesguitaristes.forumsmusic.com

Revenir en haut Aller en bas

Re: riff facile Day tripper des Beattles

Message par Riffraff le Mer 1 Aoû 2012 - 15:33

Je reviens sur ce morceau:
Il faut bien jouer les premieres notes car ce sont elles qui lancent la chanson (le riff), et si vous le souhaitez, vous pouvez étouffer toutes les notes qui sont sur la 6ème corde.

Voila @+ Wink
avatar
Riffraff
Admin
Admin

Messages : 824
Date d'inscription : 07/12/2011

http://forumdesguitaristes.forumsmusic.com

Revenir en haut Aller en bas

Re: riff facile Day tripper des Beattles

Message par Contenu sponsorisé


Contenu sponsorisé


Revenir en haut Aller en bas

Voir le sujet précédent Voir le sujet suivant Revenir en haut

- Sujets similaires

 
Permission de ce forum:
Vous ne pouvez pas répondre aux sujets dans ce forum