Rock:nirvana:lithium

Voir le sujet précédent Voir le sujet suivant Aller en bas

Rock:nirvana:lithium

Message par Riffraff le Sam 24 Mar 2012 - 19:15

Spoiler:


<font face="courier new">
Intro:

|----------------------------------------------------|
|----------------------------------------------------|
|-------------6-6---2-2---5-5---7-7---4-4-0-7-7-(7)7-|
|-2-2-0-6-6-0-6-6-0-2-2-0-5-5-0-7-7-0-4-4-0-7-7----7-|
|-2-2-0-6-6-0-4-4-0-0-0-0-3-3-0-5-5-0-2-2-0-5-5----5-|
|-0-0---4-4------------------------------------------|

Suite (Next)

|-------------------------------------------------------|
|-------------------------------------------------------|
|-------------------6------2------5------7------4------7|
|-2---2------6-----6------2------5------7------4------7-|
|-2--2--(0)-6-(0)-4--(0)-0--(0)-3--(0)-5--(0)-2--(0)-5--|
|-0-0------4--------------------------------------------|

I'm so happy 'cause today i found my friend They're


Suite (Next)


|----------|
|----------|
|--4------7|
|-4------7-|
|2--(0)-5--|
|----------|
in my head


Suite (Next)

|----------------------------------------------------|
|----------------------------------------------------|
|----------------6------2------5------7------4------7|
|--2------6-----6------2------5------7------4------7-|
|-2--(0)-6-(0)-4--(0)-0--(0)-3--(0)-5--(0)-2--(0)-5--|
|0------4--------------------------------------------|

I'm so ugly, but that's okay,cause so are you… We've broken


Suite (Next)

|-------------------|
|-------------------|
|-(7)-------4------7|
|----------4------7-|
|---------2--(0)-5--|
|-------------------|
broken our mirrors


Suite (Next)

|----------------------------------------------------|
|----------------------------------------------------|
|----------------6------2------5------7------4------7|
|--2------6-----6------2------5------7------4------7-|
|-2--(0)-6-(0)-4--(0)-0--(0)-3--(0)-5--(0)-2--(0)-5--|
|0------4--------------------------------------------|

Sunday morning is everyday for all I care

Suite (Next)

|-------------------|
|-------------------|
|-(7)-------4------7|
|----------4------7-|
|---------2--(0)-5--|
|-------------------|

And I'm not scared

Suite (Next)

|----------------------------------------------------|----|
|----------------------------------------------------|----|
|----------------6------2------5------7------4------7|----|
|--2------6-----6------2------5------7------4------7-|-777|
|-2--(0)-6-(0)-4--(0)-0--(0)-3--(0)-5--(0)-2--(0)-5--|-555|
|0------4--------------------------------------------|-000|

Light my candles in a daze… Cause I've found god

Suite (Next)

Avec Distortion (With Distortion)

|----------------------------------------|
|----------------------------------------|
|-----------6662-2-2-5-55--7-77/4-4-77-7-|
|-2-2--6-6--6662-2-2-5-55--7-77/4-4-77-7-|
|-2-2--6-6--4440-0-0-3-33--5-55/2-2-55-5-|
|-0-0--4-4-------------------------------|

Hey, hey,heyyye

hey,hey heyyyyyyyyye

Suite (Next)

|----------------------------------------------------|
|----------------------------------------------------|
|----------------6------2------5------7------4------7|
|--2------6-----6------2------5------7------4------7-|
|-2--(0)-6-(0)-4--(0)-0--(0)-3--(0)-5--(0)-2--(0)-5--|
|0------4--------------------------------------------|
I'm so happy because today I shaved my head And I'm

Suite (Next)

|----------|
|----------|
|--4------7|
|-4------7-|
|2--(0)-5--|
|----------|

not so sad

Suite (Next)

|----------------------------------------------------|
|----------------------------------------------------|
|----------------6------2------5------7------4------7|
|--2------6-----6------2------5------7------4------7-|
|-2--(0)-6-(0)-4--(0)-0--(0)-3--(0)-5--(0)-2--(0)-5--|
|0------4--------------------------------------------|

And just maybe I'm to blame for all I've heard But

Suite (Next)

|----------|
|----------|
|--4------7|
|-4------7-|
|2--(0)-5--|
|----------|

I'm not sure

Suite (Next)

|----------------------------------------------------|
|----------------------------------------------------|
|----------------6------2------5------7------4------7|
|--2------6-----6------2------5------7------4------7-|
|-2--(0)-6-(0)-4--(0)-0--(0)-3--(0)-5--(0)-2--(0)-5--|
|0------4--------------------------------------------|

I'm so excited, I can't wait to meet you there But

|----------|
|----------|
|--4------7|
|-4------7-|
|2--(0)-5--|
|----------|
I don't care

Suite (Next)

|----------------------------------------------------|----|
|----------------------------------------------------|----|
|----------------6------2------5------7------4------7|----|
|--2------6-----6------2------5------7------4------7-|-777|
|-2--(0)-6-(0)-4--(0)-0--(0)-3--(0)-5--(0)-2--(0)-5--|-555|
|0------4--------------------------------------------|-000|
I'm so horny, but that's okay My will is good

Suite (Next)

Avec Distortion (With Distortion)

|----------------------------------------|
|----------------------------------------|
|-----------6662-2-2-5-55--7-77/4-4-77-7-|
|-2-2--6-6--6662-2-2-5-55--7-77/4-4-77-7-|
|-2-2--6-6--4440-0-0-3-33--5-55/2-2-55-5-|
|-0-0--4-4-------------------------------|

Hey Hey Hey (x6)et(and)
Yeah!
Suite (Next)

|------------------------------|
|------------------------------|
|-------5--5-------------5-5---|
|-7--7--5--5--7--7-------5-5--7|
|-7--7--3--3--7--7-------3-3--7|
|-5--5--------5--5------------5|
I like it - I'm not gonna crack
|------------------------------|
|------------------------------|
|-------5--5-------------5-5---|
|-7--7--5--5--7--7-------5-5--7|
|-7--7--3--3--7--7-------3-3--7|
|-5--5--------5--5------------5|
I miss you - I'm not gonna crack
|------------------------------|
|------------------------------|
|-------5--5-------------5-5---|
|-7--7--5--5--7--7-------5-5--7|
|-7--7--3--3--7--7-------3-3--7|
|-5--5--------5--5------------5|
I love you - I'm not gonna crack
|------------------------------|
|------------------------------|
|-------5--5-------------5-5---|
|-7--7--5--5--7--7-------5-5--7|
|-7--7--3--3--7--7-------3-3--7|
|-5--5--------5--5------------5|
I miss you - I'm not gonna crack
|------------------------------|
|------------------------------|
|-------5--5-------------5-5---|
|-7--7--5--5--7--7-------5-5--7|
|-7--7--3--3--7--7-------3-3--7|
|-5--5--------5--5------------5|
I like it - I'm not gonna crack
|------------------------------|
|------------------------------|
|-------5--5-------------5-5---|
|-7--7--5--5--7--7-------5-5--7|
|-7--7--3--3--7--7-------3-3--7|
|-5--5--------5--5------------5|
I miss you - I'm not gonna crack
|------------------------------|
|------------------------------|
|-------5--5-------------5-5---|
|-7--7--5--5--7--7-------5-5--7|
|-7--7--3--3--7--7-------3-3--7|
|-5--5--------5--5------------5|
I love you - I'm not gonna crack
|----------------------------------|
|----------------------------------|
|-------5--5-----------------------|
|-7--7--5--5--7--7----


Dernière édition par Riffraff le Ven 3 Aoû 2012 - 8:28, édité 2 fois
avatar
Riffraff
Admin
Admin

Messages : 824
Date d'inscription : 07/12/2011

http://forumdesguitaristes.forumsmusic.com

Revenir en haut Aller en bas

Re: Rock:nirvana:lithium

Message par Invité le Mar 15 Mai 2012 - 14:14

police modifiée ...
avatar
Invité
Invité


Revenir en haut Aller en bas

Voir le sujet précédent Voir le sujet suivant Revenir en haut

- Sujets similaires

 
Permission de ce forum:
Vous ne pouvez pas répondre aux sujets dans ce forum